Guitaretab - guitar tabs
Song name
# A B C D E F G H I J K L M N O P Q R S T U V W X Y Z

Good Charlotte - Break Apart Her Heart tab

Artist: Good Charlotte
Song: Break Apart Her Heart
Album: Good Morning Revival
Tabbed by: Rita :D


Standard tuning

\ = Slide down
. = Palm mute
x = Muted note

Intro x5
E|-------------------------------------------------------------|
B|-------------------------------------------------------------|
G|--11-11--11111111-11111111--1111111111-1111-11111111-10-8----|
D|--x--x---x-x-x-x--x-x-x-x---x-x-x-x-x--x-x--x-x-x-x--x--x----|
A|--9--9---9-9-9-9--9-9-9-9---9-9-9-9-9--9-9--9-9-9-9--8--6----|
E|-------------------------------------------------------------|


Verse 1  
E|-------------------------------------------------------------|
B|-------------------------------------------------------------|
G|--11--10--8--8------6--6--6--6-------------------------------|
D|----8---8--8--8-x5---6--6--6--6------------------------------|
A|-------------------------------------------------------------|
E|-------------------------------------------------------------|
PM..............................................................


E|-------------------------------------------------------------|
B|-------------------------------------------------------------|
G|--11--10--8--8------6--6--6--6-------------------------------|
D|----8---8--8--8-x3---6--6--6--6------------------------------|
A|-------------------------------------------------------------|
E|-------------------------------------------------------------|
PM...............


E|-------------------------------------------------------------|
B|-------------------------------------------------------------|
G|--11--10--8--8------6--6--6--6-------------------------------|
D|----8---8--8--8-x3---6--6--6--6------------------------------|
A|-------------------------------------------------------------|
E|-------------------------------------------------------------|

Chorus x4
E|-------------------------------------------------------------|
B|-------------------------------------------------------------|
G|--11-11--11111111-11111111--1111111111-1111-11111111-10-8----|
D|--x--x---x-x-x-x--x-x-x-x---x-x-x-x-x--x-x--x-x-x-x--x--x----|
A|--9--9---9-9-9-9--9-9-9-9---9-9-9-9-9--9-9--9-9-9-9--8--6----|
E|-------------------------------------------------------------|


Verse 2
E|-------------------------------------------------------------|
B|-------------------------------------------------------------|
G|--11--10--8--8------6--6--6--6-------------------------------|
D|----8---8--8--8-x4---6--6--6--6------------------------------|
A|-------------------------------------------------------------|
E|-------------------------------------------------------------|
PM..............................................................

[ Tab from: http://www.guitaretab.com/g/good-charlotte/97277.html ]
E|-------------------------------------------------------------|
B|-------------------------------------------------------------|
G|--11--10--8--8------6--6--6--6-------------------------------|
D|----8---8--8--8-x3---6--6--6--6------------------------------|
A|-------------------------------------------------------------|
E|-------------------------------------------------------------|
PM...............


E|------------------------9------------------------------------|
B|----------------------9---11-9----9-11-----------------------|
G|--11--10--8--8-----11----------11----------------------------|
D|----8---8--8--8----------------------------------------------|
A|-------------------------------------------------------------|
E|-------------------------------------------------------------|


Chorus x4
E|-------------------------------------------------------------|
B|-------------------------------------------------------------|
G|--11-11--11111111-11111111--1111111111-1111-11111111-10-8----|
D|--x--x---x-x-x-x--x-x-x-x---x-x-x-x-x--x-x--x-x-x-x--x--x----|
A|--9--9---9-9-9-9--9-9-9-9---9-9-9-9-9--9-9--9-9-9-9--8--6----|
E|-------------------------------------------------------------|


"Can't you see, what you've done..."
E|--------------------------------------------------------------
B|--------------------------------------------------------------
G|-8--8--8-8-8-8-8-6-1--1--1-1-1-1-1-6-8--8--8-8-8-8-1115--15---
D|-x--x--x-x-x-x-x-x-x--x--x-x-x-x-x-x-x--x--x-x-x-x-x-x---x----
A|-6--6--6-6-6-6-6-4-3--3--3-3-3-3-3-4-6--6--6-6-6-6-9-13--13---
E|--------------------------------------------------------------


Cont'd
---------------------------------------------9-----------------|
-------------------------------------------9---11-9----9-11----|
---15-15-15-15-15-118--8--8-8-8-8-8-6---11----------11---------|
---x--x--x--x--x--x-x--x--x-x-x-x-x-x--------------------------|
---13-13-13-13-13-9-6--6--6-6-6-6-6-4--------------------------|
---------------------------------------------------------------|

Solo x9
E|-------9-----------------------------------------------------|
B|-----9---11-9----9-11----------------------------------------|
G|--11----------11---------------------------------------------|
D|-------------------------------------------------------------|
A|-------------------------------------------------------------|
E|-------------------------------------------------------------|


Chorus x7
E|-------------------------------------------------------------|
B|-------------------------------------------------------------|
G|--11-11--11111111-11111111--1111111111-1111-11111111-10-8----|
D|--x--x---x-x-x-x--x-x-x-x---x-x-x-x-x--x-x--x-x-x-x--x--x----|
A|--9--9---9-9-9-9--9-9-9-9---9-9-9-9-9--9-9--9-9-9-9--8--6----|
E|-------------------------------------------------------------|


Outro 
E|--------------------------------------------------------------------|
B|--------------------------------------------------------------------|
G|--11-11-1111111111111111111111110--10101010101010101010101010101010\|
D|--x--x--x-x-x-x-x-x-x-x-x-x-x-x-x--x-x-x-x-x-x-x-x-x-x-x-x-x-x-x-x-\|
A|--9--9--9-9-9-9-9-9-9-9-9-9-9-9-8--8-8-8-8-8-8-8-8-8-8-8-8-8-8-8-8-\|
E|--------------------------------------------------------------------|

And that's it! I'm pretty sure it's correct. It sounds right anyway...
Hope you liked it! Please rate and comment!






Related for Break Apart Her Heart tab
Advertisement will be closed in 10 seconds