Song name
# A B C D E F G H I J K L M N O P Q R S T U V W X Y Z

Good Clean Fun - Who Shares Wins tab

-------------------------------------------------------------------------------
			     Who Shares Wins - Good Clean Fun
-------------------------------------------------------------------------------
Tabbed by: Jared
Email: Salvation138@gmail.com
Email me with any corrections, comments, etc.

Tuning: E A D G B e

Intro
e|-----------------------|
B|-----------------------|
G|--9--9--9--9--9--9--9--|
D|--9--9--9--9--9--9--9--|
A|--7--7--7--7--7--7--7--|
E|-----------------------|

Verse (Lead Guitar)
e|--------------------------------------|
B|--------------------------------------|
G|--9-(x8)--16-(x4)--12-(x4)--11-(x16)--|
D|--x-------x--------x--------x---------|
A|--7-------14-------14-------13--------|
E|--------------------------------------|

e|------------------------------------------------------|
B|------------------------------------------------------|
G|--9-(x8)--16-(x4)--12-(x4)--11-(x4)--12-(x4)--9-(x8)--|
D|--x-------x--------x--------x--------x--------x-------|
A|--7-------14-------14-------13-------14-------7-------|
E|------------------------------------------------------|

e|--------------------------------------|
B|--------------------------------------|
G|--9-(x8)--16-(x4)--12-(x4)--11-(x16)--|
D|--x-------x--------x--------x---------|
A|--7-------14-------14-------13--------|
E|--------------------------------------|

e|-------------------------------------------------------|
B|-------------------------------------------------------|
G|--9-(x8)--16-(x4)--12-(x4)--11-(x4)--12-(x4)--21-(x8)--|
D|--x-------x--------x--------x--------x--------x--------|
A|--7-------14-------14-------13-------14-------19-------|
E|-------------------------------------------------------|

Chorus (x2)
e|--------------------------------------|
B|--------------------------------------|
G|--6-6-6-6--7-7-7-7--------------------|
D|--6-6-6-6--7-7-7-7--7-7-7-7--9-9-9-9--|
A|--4-4-4-4--5-5-5-5--7-7-7-7--9-9-9-9--|
E|--------------------5-5-5-5--7-7-7-7--|

e|-------------------------------------|
B|-------------------------------------|
G|--6-6-6-6--7-7-7-7--9-9-9-9-9-9-9-9--|
D|--6-6-6-6--7-7-7-7--9-9-9-9-9-9-9-9--|
A|--4-4-4-4--5-5-5-5--7-7-7-7-7-7-7-7--|
E|-------------------------------------|

Pre-bridge
e|-------------------|
B|-------------------|
G|-------------------|
D|--2-2-2-2-2-2-2-2--|
A|--2-2-2-2-2-2-2-2--|
E|--0-0-0-0-0-0-0-0--|
  pm---------------

Bridge
e|-----------------------------------------|
B|-----------------------------------------|
G|--9-9-9--6-6-6---------------------------|
D|--9-9-9--6-6-6--6-6--x--7-7-7--9-9-9--x--| (x4)
A|--7-7-7--4-4-4--6-6--x--7-7-7--9-9-9--x--|
E|----------------4-4--x--5-5-5--7-7-7--x--|

e|-----------------------------------|
B|-----------------------------------|
G|--9-9-9--6-6-6---------------------|
D|--9-9-9--6-6-6--6-6--7-7-7--9-9-9--| (x8)
A|--7-7-7--4-4-4--6-6--7-7-7--9-9-9--|
E|----------------4-4--5-5-5--7-7-7--|
  pm------------------------------- 

e|-----------------------------------------|
B|-----------------------------------------|
G|--9-9-9--6-6-6---------------------------|
D|--9-9-9--6-6-6--6-6--x--7-7-7--9-9-9--x--| (x8)
A|--7-7-7--4-4-4--6-6--x--7-7-7--9-9-9--x--|
E|----------------4-4--x--5-5-5--7-7-7--x--|

Outro
e|-----|
B|-----|
G|--9--|
D|--9--|
A|--7--|
E|-----|


Song Order

Intro
Verse
Chorus
Verse
Chorus
Pre-Bridge
Bridge
Outro


| /  slide up
| \  slide down
| h  hammer-on
| p  pull-off
| ~  vibrato
| +  harmonic
| x  Mute note
===============================================================================
Tap to rate this tab
# A B C D E F G H I J K L M N O P Q R S T U V W X Y Z