Song name
# A B C D E F G H I J K L M N O P Q R S T U V W X Y Z

Good Literature - Mixed Up tab

-------------------------------------------------------------------------------
                             Mixed Up - Good Literature
-------------------------------------------------------------------------------
Tabbed by:Robert Kuhs
Email:Robertkuhs@gmail.com


    This is just the the basic version of this song

Tuning:Standerd E
   Intro/verse
e|-x--1--3--0--0------------------------------------------------------------------|
B|-x--1--3--0--0------------------------------------------------------------------|
G|-5--2--4--1--2------------------------------------------------------------------|
D|-5--3--5--0--0------------------------------------------------------------------|
A|-x--3--5--2--2------------------------------------------------------------------|
E|-5--1--3--0--0------------------------------------------------------------------|
  pre ch 
e|-1--3--x----------------------------------------------------------------------|
B|-1--3--x----------------------------------------------------------------------|
G|-2--4--x----------------------------------------------------------------------|
D|-3--5--5----------------------------------------------------------------------|
A|-3--5--x----------------------------------------------------------------------|
E|-1--3--5----------------------------------------------------------------------|
  ch
e|-x--3--1--0--0------------------------------------------------------------------|
B|-x--3--1--0--0------------------------------------------------------------------|
G|-5--4--2--1--2------------------------------------------------------------------|
D|-5--5--3--0--0------------------------------------------------------------------|
A|-x--5--3--2--2------------------------------------------------------------------|
E|-5--3--1--0--0------------------------------------------------------------------|
  bridge
e|-1--3--0----------------------------------------------------------------------|
B|-1--3--1----------------------------------------------------------------------|
G|-2--4--2----------------------------------------------------------------------|
D|-3--5--2----------------------------------------------------------------------|
A|-3--5--0----------------------------------------------------------------------|
E|-1--3--x----------------------------------------------------------------------|

www.goodliteraturemusic.com

************************************

| /   slide up
| \   slide down
| h   hammer-on
| p   pull-off
| ~   vibrato
| +   harmonic
| x   Mute note
| b   Bend
| pb  Pre-bend
| br  Bend release
| pbr Pre-bend release
| brb Bend release bend

************************************
Tap to rate this tab
 
# A B C D E F G H I J K L M N O P Q R S T U V W X Y Z