Guitaretab - guitar tabs
Song name
# A B C D E F G H I J K L M N O P Q R S T U V W X Y Z

Good Luck - Stars Were Exploding tab

-------------------------------------------------------------------------------
         Stars Were Exploding/Bringing Them Back To Life - Good Luck
-------------------------------------------------------------------------------
Tabbed by: Mike Riv
Email:mikerriv@yahoo.com

Tuning:Standard

The only difference between the two songs is the distortion.
Official site http://www.wearegoodluck.com/
Good Lucks myspace http://www.myspace.com/wearegoodluck
Good Luck is on No Idea Records

Main part
e|---------------------------------------------------------------------------|
B|---------------------------------------------------------------------------|
G|---------88-66-------------------------------------------------------------|
D|88-11-11-------88-66-88-11-11----------------------------------------------|
A|99--8-8--66-44-66-33-66-8--8-----------------------------------------------|
E|---------------------------------------------------------------------------|
[ Tab from: http://www.guitaretab.com/g/good-luck/191961.html ]
lead part at the end
e|-----------------------------------------------------------------------------|
B|11-------------------------14~~--------11-14-11------------------------------|
G|11(both lightly strummed)13----11-11-11--------13-11-11-11---13--------------|
D|-----------------------------------------------------------13--13~~----------|
A|-----------------------------------------------------------------------------|
E|-----------------------------------------------------------------------------|

e|---------------------------------------------------------------------------|
B|---------11-11-11--14--------------11-14-19-18-16-16-16-16-11--------------|
G|13--11h13--------13--13~~-11-11-11---------------------------13-11--11-13~~|
D|--13--------------------------------------------------------------13-------|
A|---------------------------------------------------------------------------|
E|---------------------------------------------------------------------------|

| /  slide up
| \  slide down
| h  hammer-on
| p  pull-off
| ~  vibrato
| +  harmonic
| x  Mute note