Song name
# A B C D E F G H I J K L M N O P Q R S T U V W X Y Z

Good Luck - Stars Were Exploding tab

Artist: Good Luck
Song: Stars Were Exploding / Bringing Them Back to Life
Tabbed by: LookLookJamie
Email: LookLookJamie@Hellokitty.com

THIS IS VERY SIMILAR TO THE OTHER VERSION ALREADY ON HERE.  I made a few changes because
few parts did not sound correct to me.  Also, some parts of the solo may be easier to
on other strings, but since I'm tabbing this out with an acoustic guitar, I can't go as 
up on the fretboard.

This should be 100% correct though, please comment if it's not!

Intro/Main part
e|---------------------------------------------------|
B|---------------------------------------------------|
G|---------88----------------6--6--------------------|
D|88-11-11-99-11-11-88----44-6--6--------------------|
A|99--8-8------8--8-66-66-66-8--8--------------------|
E|---------------------88----------------------------|


Solo
e|-----------------------------9------------------------------------------|
B|--11-11-11-9--------------11---11-9-------------9---9- --------9-h11-p9-|
G|----------------11-11-11------------11-11-11-11---8---11-8-11-----------|
D|-------------11---------------------------------------------------------|
A|------------------------------------------------------------------------|
E|------------------------------------------------------------------------|

e|-------------9---------------9-14-13-11-11-11-11------------------------------|
B|--11-11-11-9---9----------11---------------------11-9-9-----------------------|
G|-----------------11-11-11-------------------------------11-8-11-10/11\10------|
D|------------------------------------------------------------------------------|
A|------------------------------------------------------------------------------|
E|------------------------------------------------------------------------------|
Tap to rate this tab
 
# A B C D E F G H I J K L M N O P Q R S T U V W X Y Z