Song name
# A B C D E F G H I J K L M N O P Q R S T U V W X Y Z

Good Old War - Im Not For You tab

-------------------------------------------------------------------------------
			     I'm Not For You - Good Old War
-------------------------------------------------------------------------------
Tabbed by: Backtoground27
Email:

Tuning: D (whole step down)
           Capo on 5th fret.

      D   D/E   Bm   /  C#m   \  Bm
Intro/Verse/Chorus

"In dreams our love has been redrawn..."
e|----2----2-------------------------------------------------------------------------|
B|----3----3-----3-------5--------3--------------------------------------------------|
G|----2------------------------------------------------------------------------------|
D|---------2-------------------------------------------------------------------------|
A|---------------2-------4--------2--------------------------------------------------|
E|-----------------------------------------------------------------------------------|


Pre-Chorus
"There's nothing you can hide... alriiight..."

     E                          E6
e|-------------------------------------------------------------------------------|
B|-------------------------------2-----------------------------------------------|
G|-------------------------------------------------------------------------------|
D|---2---------------------------2-----------------------------------------------|
A|---2---------------------------------------------------------------------------|
E|-------------------------------------------------------------------------------|

| /  slide up
| \  slide down
| h  hammer-on
| p  pull-off
| ~  vibrato
| +  harmonic
| x  Mute note
===============================================================================
Tap to rate this tab
 
# A B C D E F G H I J K L M N O P Q R S T U V W X Y Z