Song name
# A B C D E F G H I J K L M N O P Q R S T U V W X Y Z

Good Old War - Amazing Eyes tab

Good Old War - "Amazing Eyes"
Standard Tuning - No Capo

Many of the F chords are actually FM7 (133210)--throw them in wherever you feel like it.

The intro goes something like this... I've mostly only tabbed out the accented notes; 
fill them in with light strumming.


     ^
     Q    E  E  E  E  E  E     Q    E  E  E  E  Q       Q    E  Q    E  E  E
E||-------------------------|--0-------------1--3----|-------0-------0--------|
B||--3-------3-----1--------|------------------------|----------1-------1-----|
G||--0-------------------0--|----------2-------------|------------------0-----|
D||--2----------2-----------|-------------3----------|--2---------------------|
A||--3----3-----------3-----|-------3----------------|--3------------------3--|
E||-------------------------|------------------------|------------------------|


  Q    E  E  E  E  E  E     Q    E  E  E  E  E  E     E  E  E  E  E  E  E  E
--0-------0-----1-----0--|-------------------------|--------------------------|
-------------------------|--3-------0-----------1--|--------------------------|
-------0-----------------|-------------------0-----|-----2-----2-----0--------|
-------------2-----------|-------------0-----------|-----------------------2--|
-------------------3-----|-------------------------|--3-----3-----------3-----|
-------------------------|-------3--------3--------|--------------3-----------|


  Q    E  Q    E  Q       Q    Q    Q.     E
-----------------------|----------------------||
-------1---------------|--1-------------------||
---------------0-------|--0-------------------||
--2-------2----2--3----|--2---------2------2--||
--3------------3--3----|--3---------0---------||
-----------------------|-------3--------------||



C         F         C
You have amazing eyes
                 G                 F               C      F C Am
The right one's suspicious and the left one wants my love
C                     F            C
I don't care what you think I've done
          G              F         C    F C
I know I never meant no harm to anyone
Am        G              F    C      F C
I know I never meant no harm at all


C/B       Am             C/B   C
Is this wrong or only half right?
             G                 F
You want me gone but I stay the night
        Am       C/B   C
When I see you in the half light
     G            G6  G7
It feels so fine
     F                     Am
Everybody seems to wonder why
  C/B     C                  G
I go right back to you every time
            F
But I don't mind
F
I don't mind


Cause you have amazing eyes
The right one's suspicious and the left one wants my love
I don't care what you think I've done
I know I never meant no harm to anyone

You're a little bit broken and I'm a little bit broken
When we put ourselves together, my oh my
And you may not understand it
But something here is working
So I don't mind
I don't mind


C                FM7          G7
Cause you're mine (you're mine)
C             FM7        G7
I don't mind (don't mind)
             Am   G   F
Cause you're mine
F               G   G7
(You're mine) Aah
        F
I don't mind

You have amazing eyes
The right one's suspicious and the left one wants my love
I don't care what you think I've done
I know I never meant no harm to anyone
I know I never meant no harm at all
You have amazing eyes
The right one's suspicious and the left one wants my love
I don't care what you think I've done
I know I never meant no harm to anyone
I know I never meant no harm to anyone
I know I never meant no harm at all
Tap to rate this tab
# A B C D E F G H I J K L M N O P Q R S T U V W X Y Z