Song name
# A B C D E F G H I J K L M N O P Q R S T U V W X Y Z

Good Old War - Coney Island tab

-----------------------------------------------------------------------------
                             CONEY ISLAND - Good Old War
-----------------------------------------------------------------------------
Tabbed by: HoldMeLoveMe

Tuning: Standard; Capo on 5th fret



Some assembly required.

If you want, you'd be fine playing this without the fills, but I'm going to add them in
just to be thorough. You have to listen to hear exactly how they fit in though; they're
pretty mixed into the strumming and chords. Use some, use all, use none. But if nothing 
else, this is a tab with actually accurate chords. Hope it helps, and happy learning :)

----------------
CHORDS   EADGBe
----------------
Cadd#11: X34010
Cadd11:  X33010
C:       X32010
Am:      X02210
G:       320003
Fmaj7:   XX3210
----------------

FILLS

1.) e|---------------|  2.) e|---------------|  3.) e|---------------|
    B|---------------|      B|---------------|      B|---------------|
    G|---------------|      G|---------------|      G|---------------|
    D|--2p0-0--------|      D|---------------|      D|---------------|
    A|---------3-----|      A|---2-----------|      A|--0h2-2--------|
    E|---------------|      E|---------------|      E|---------------|


Intro: (Strum muted strings, then:) Cadd#11 Cadd11 C Cadd#11 Cadd11 (1) C (2) C

C          Cadd#11      Cadd11   C
I found a letter in the mail box today
      (2) Am                  G      (3)      C   (2) C
And I said thank you for your thoughts but I'm done
C          Cadd#11       Cadd11              C
I said that I would never build this up right here
       (2) Am           G       (3)      C
He said that's why I can't work with you son


    (2)     Am        G (3) Fmaj7  C
But I can't let this go I'm on my way
        (2) Am           G      (3) C
And you can only hold my diamond ring
  (2)   Am       G    (3)    Fmaj7  C
I'll go crawling back to the city I love
          (2) Am         G       (3) C  (2) C
Cause it's already taken everything


C            Cadd#11     Cadd11        C
I'm going to Coney Island have myself a dog
      (2) Am              G            (3) C (2) C
And reminisce why I still hate it here
C              Cadd#11           Cadd11       C
It's all these people with their cotton candy eyes
     (2)Am                G        (3) C
It's so sweet now put the train in gear


  (2)   Am       G  (3) Fmaj7  C
I can't let this go I'm on my way
        (2) Am           G           (3) C
And you can only hold my diamond ring
     (2)Am       G     (3)   Fmaj7  C
I'll go crawling back to the city I love
          (2) Am          G   (3)   C (2) C
Cause it's already taken everything

Instumental:
(Chords are same as verse)

e|--------0-----|-------------|--------3--1--|--0------------|
B|--------------|--------1----|-----1--------|---------------|
G|--0---2----2--|--0--2-------|--2-----------|---------------|
D|--------------|-------------|--------------|---------------|
A|--------------|-------------|--------------|---------------|
E|--------------|-------------|--------------|---------------|

e|--------0-----|-------------|--------3-----|---------------|
B|--------------|--------1----|-----1--------|---------------|
G|--0---2----2--|--0--2-------|--2--------/4-|--5------------|
D|--------------|-------------|--------------|---------------|
A|--------------|-------------|--------------|---------------|
E|--------------|-------------|--------------|---------------|

(Strum muted strings through verse)
The ground is swallowing my options for release
And if it rains they might just disappear
I counted 27 birds up there today
I'm thinking that's why I still love it here
             Am                 G       C
I'm thinking that's why I still love it here


  (2)   Am       G  (3) Fmaj7  C
I can't let this go I'm on my way
        (2) Am           G           (3) C
And you can only hold my diamond ring
     (2)Am       G     (3)   Fmaj7  C
I'll go crawling back to the city I love
          (2) Am          G   (3)   C
Cause it's already taken everything
          (2) Am          G   (3)   C G C
Cause it's already taken everything
Tap to rate this tab
 
# A B C D E F G H I J K L M N O P Q R S T U V W X Y Z