Song name
# A B C D E F G H I J K L M N O P Q R S T U V W X Y Z

Good Old War - Better Weather chords

Highlighted       Show chord diagrams
-----------------------------------------------------------------------------
                         Better Weather - Good Old War
-----------------------------------------------------------------------------
Tabbed by: Paul M.

Tuning: Standard

Capo VII Key of G (played in C at 7th fret)

Intro: C, G, F, C, F, G, C x 2

C       G           F               C
Maybe tomorrow, the storm will blow over
    F           G   C
The river won't overflow
C      G            F           C
Nobody knows what tomorrow will bring, 
       F        G     C
That's why we rely on hope

Am   C   F   C        F             G      C
Oh,             we'll pray for some better weather
Am   C   F   C        F             G      C
Oh,             we'll pray for some better weather 

Our little house at the top of the hill
Was built with love and four tons of steel
It's pretty strong, but it can still come down
Let's hope that it never will

Oh, we'll pray for some better weather
Oh, we'll pray for some better weather

Solo

G                            C
You know we always have each other
Am     G             C
If we go, we'll go together

Oh, we'll pray for some better weather
Oh, we'll pray for some better weather

Maybe tomorrow the storm will blow over, 
The river won't overflow
Nobody knows what tomorrow will bring, 
That's why we rely on hope

Am   C   F   C        F             G      C
Oh,             we'll pray for some better weather
Am   C   F   C        F             G      C
Oh,             we'll pray for some better weather 
F             G      C
Pray for some better weather
F             G      C
Pray for some better weather



Intro/Solo

e|---------------------------------------------------------------------------|
B|----1--1--0------------1-1----------------1--1-----------------------------|
G|----0--0--0-2-0--------2-2-----------0----2--2--0------------0-0-2p0-------|
D|------------------0--3-------2p0---2----3----------0-----0---2-2-----2-0---|
A|--3------------------------------3-------------------0h2---3-------------3-|
E|---------------------------------------------------------------------------|

************************************

| /   slide up
| \   slide down
| H   hammer-on
| p   pull-off
| ~   vibrato
| +   harmonic
| x   Mute note
| B   Bend
| pb  Pre-bend
| br  Bend release
| pbr Pre-bend release
| brb Bend release bend

************************************
Tap to rate this tab
# A B C D E F G H I J K L M N O P Q R S T U V W X Y Z