Song name
# A B C D E F G H I J K L M N O P Q R S T U V W X Y Z

Good Riddance - Fire Engine Red tab

Band - Good Riddance
Song - Fire Engine Red
Album - Symptoms Of A Leveling Spirit
Tabbed By: SumFX (Tyler Freear)

Impressive Song And What A Way To Set Off An Album!

"You Talk Funny, Where You From?"
"California"
"I HATE CALIFORNIA!"

Intro
|-------------------------------------|
|-------------------------------------|
|----------------------------44444444-|
|-44444444-77777777-22222222-44444444-|
|-44444444-77777777-22222222-22222222-|
|-22222222-55555555-00000000----------|

Intro Lead
             x2
/-----------------------------\
|-----x3--------|-------------|-----x2---------|-------------|
|---------------|-------------|----------------|-------------|
|-11-11-11-9-11-|-14-13-11-9--|-11-11-11-9-11--|-14-13-11-9--|
|---------------|-------------|----------------|-------------|
|---------------|-------------|----------------|-------------|
|---------------|-------------|----------------|-------------|

Verse
|-------------x4----------------------|
|-------------------------------------|
|----------------------------44444444-|
|-44444444-77777777-22222222-44444444-|
|-44444444-77777777-22222222-22222222-|
|-22222222-55555555-00000000----------|

Chorus 1
|-------X3-----------|----x2---------|
|--------------------|---------------|
|-77----777--666666--|--------777777-|
|-77-7--777--666666--|-444444-777777-|
|-55-7--555--444444--|-444444-555555-|
|----5---------------|-222222--------|

Chorus 1
|-------X3-----------|----x2---------|--------------------|
|--------------------|---------------|--------------------|
|-77----777--666666--|--------777777-|--------777---------|
|-77-7--777--666666--|-444444-777777-|-444444-777-777--4--|
|-55-7--555--444444--|-444444-555555-|-444444-555-777--4--|
|----5---------------|-222222--------|-222222-----555--2--|


2nd Chorus Lead At 1.08
|------------|------------------|------------|----------------------|
|------------|------------------|------------|----------------------|
|-11-11-9-11-|-11-11-14-13-11-9-|-11-11-9-11-|-14-13-14-13-9-13-11--|
|------------|------------------|------------|----------------------|
|------------|------------------|------------|----------------------|
|------------|------------------|------------|----------------------|

Bridge
|-------------------------------|------------------------------|
|-------------------------------|------------------------------|
|-2-----------------------------|------------------------------|
|-2-2222222--44444444-----------|-22222222-4444----------------|
|-0-0000000--22222222-44444444--|-00000000-2222-2222-44444444--|
|---------------------22222222--|---------------0000-22222222--|
    .......  ........ ........    ........ .... .... ........

Outro
|-------------------------------|---------------------|
|-------------------------------|---------------------|
|-22222222-44444444-------------|-22222222-444--------|
|-22222222-44444444-44444444----|-22222222-444-222-4--|
|-00000000-22222222-44444444----|-00000000-222-222-4--|
|-------------------22222222----|--------------000-2--|

Outro Lead
1.54
|------------------------|
|------------------------|
|-9999-9-7-6-7-66666666--|
|-xxxx-x-x-x-x-xxxxxxxx--|
|-7777-7-5-4-5-44444444--|
|------------------------|


Intro
Verse
Chorus
Verse
Chorus
Bridge
Outro
Tap to rate this tab
 
# A B C D E F G H I J K L M N O P Q R S T U V W X Y Z