Good Riddance - Darkest Days tab

=================================================                      
         Good Riddance - Darkest Days
=================================================

Feel free to leave any comments or rate this tab: end_4ever@hotmail.com
Have fun!

Intro: guitar 1 (4x)
e|-------------------------------------------------------------------------|
B|-------------------------------------------------------------------------|
G|-------------------------------------------------------------------------|
D|-------------------------------------------------------------------------|
A|-9-9-9-9-9-9-9-9---4-4-4-4-4-4-4-4---------------------5-5-5-5-5-5-5-5---|
E|-------------------------------------5-5-5-5-5-5-5-5---------------------|


Verse: guitar 1 (0:24)
e|------------------------------------------------------------------------|
B|------------------------------------------------------------------------|
G|------------------------------------------------------------------------|
D|-1111111111111111----------66666666-------------------------77777777----|
A|--9-9-9-9-9-9-9-9----------44444444-77777777----------------55555555----|
E|------------------------------------55555555----------------------------|
   Pulling down toxins from the atmosphere Making all of my decisions based on fear
   I never give a fuck about what I could be I declared a private war on authority
   I got what you need because I'm a bad seed I'm running on adrenaline and living on greed
   I'm tired of being, I'm sick of my scene I'm looking for the end or a place where I can 

e|------------------------|
B|------------------------|
G|------------------------|
D|-11111111111111----11\--|
A|--9-9-9-9-9-9-9-----9\--|
E|------------------------|
    finally come clean   Because I remember 


Chorus: guitar 1 (0:47)
e|--8x------8x-----------------8x-----8x-------------------|
B|---------------------------------------------------------|
G|-----------------------------------------------------9~--|
D|--11------6-------------------------7----------------x---|
A|---9------4------------------7------5----------------7~--|
E|-----------------------------5---------------------------|
    one time something to live for now so long ago
    Faces always are changing Lies and disguise for the things we know
    One time something to live for Somehow I lost my way
    Those times I pissed away now Echo in my darkest days


Verse 2: guitar 1 (1:10)
e|------------------------------------------------------------------------|
B|------------------------------------------------------------------------|
G|------------------------------------------------------------------------|
D|-1111111111111111----------66666666-------------------------77777777----|
A|--9-9-9-9-9-9-9-9----------44444444-77777777----------------55555555----|
E|------------------------------------55555555----------------------------|
Walking everyday thinking that I know best Wearing my contempt like a bullet-proof vest
On my way I'm going to make it all mine Rolling in the gutter just to kill some time
But I was dead wrong and now its all gone I won't become the fool that I've abused for so long
The line's played out and I've got to get back    Chase away the negative and throw away the 

e|-------------------|
B|-------------------|
G|-------------------|
D|-11111111111111----|
A|--9-9-9-9-9-9-9----|
E|-------------------|
    useless track   Because I remember

Chorus: guitar 1 (1:33)
e|--8x------8x-----------------8x-----8x---------|
B|-----------------------------------------------|
G|-----------------------------------------------|
D|--11------6-------------------------7----------|
A|---9------4------------------7------5----------|
E|-----------------------------5-----------------|
    one time something to live for now so long ago
    Faces always are changing Lies and disguise for the things we know
    One time something to live for Somehow I lost my way
    Those times I pissed away now Echo in my darkest days


Interlude: guitar 1 (1:53)
e|------|-2x----------------------------------------------------------------------|
B|------|-------------------------------------------------------------------------|
G|--11~-|--11-1111111111111111--999999--14-13-9--14-13-9--14-13-14-13--1818181818-|
D|---x--|---x--x-x-x-x-x-x-x-x--xxxxxx---x--x-x---x--x-x---x--x--x--x---x-x-x-x-x-|
A|---9~-|---9--9-9-9-9-9-9-9-9--777777--12-11-7--12-11-7--12-11-12-11--1616161616-|
E|------|-------------------------------------------------------------------------|
        I've seen things I hope I never see again
        (There's another place to fall)
        I don't want to have to bury any more friends
        (There's another friend to call)
        Living on the edge of a sign of our times
        (There's a world beyond yourself)
        Dying in the wreckage we create with our crimes
        (There are those who tried to help)


Chorus: guitar 1 (2:15)
e|--8x------8x-----------------8x-----8x---------|
B|-----------------------------------------------|
G|-----------------------------------------------|
D|--11------6-------------------------7----------|
A|---9------4------------------7------5----------|
E|-----------------------------5-----------------|
    one time something to live for now so long ago
    Faces always are changing Lies and disguise for the things we know
    One time something to live for Somehow I lost my way
    Those times I pissed away now Echo in my darkest days

End: guitar 1 (2:36)
e|---------------------|
B|---------------------|
G|--11~---1111-9-11x---|
D|---x-----x-x-x--xx---|
A|---9~----9-9-7--9x---|
E|---------------------|
Tap to rate this tab
 
# A B C D E F G H I J K L M N O P Q R S T U V W X Y Z