Song name
# A B C D E F G H I J K L M N O P Q R S T U V W X Y Z

Good Riddance - Overcoming Learned Behavior tab

Song: Overcoming Learned Behavior
Band: Good Riddance
Album: Short Music For Short People
Label: Fat Wreck Chords
Written and Performed By: Good Riddance
Tabbed By: ultimatelefty

Well here's a great 27-second song, as always, please rate, comment, and enjoy! 

e|---------------------|
B|---------------------|
G|------99-9------99-9-|
D|-99-9-99-9-77-7-99-9-|
A|-99-9-77-7-77-7-77-7-|
E|-77-7------55-5------|x4

e|---------------------|----------------|-------------------------------|
B|---------------------|----------------|-------------------------------|
G|------99-9------99-9-|----------------|--------------99---------9-9-9-|
D|-99-9-99-9-77-7-99-9-|----------------|-44-444-444-4499-44-444\-9-9-9-|
A|-99-9-77-7-77-7-77-7-|-9999999977777\-|-44-444-444-4477-44-444\-7-7-7-|
E|-77-7------55-5------|----------------|-22-222-222-22---22-222\-------|
PM .. . .. . .. . .. .                                     Pickslide

e|--------------------------------------------------------------|
B|--------------------------------------------------------------|
G|--------------99--------------------------99-9------9-9-9-----|
D|-44-444-444-4499---------------------99-9-99-9-77-7-9-9-9--9\-|
A|-44-444-444-4477-9999999999999999-7--99-9-77-7-77-7-7-7-7--9\-|
E|-22-222-222-22-----------------------77-7------55-5--------7\-|

Lyrics:

Yeah!
I can't take just one more day
To figure out why we act this way
Gone on too long, we know it's wrong
But this might not be, see how far we've gone?
I'm scared for all the dead-enders
Same satisfaction
But now we've grown to like it
"What's this?" said Lamar
I'm still here 

************************************

| /   slide up
| \   slide down
| h   hammer-on
| p   pull-off
| ~   vibrato
| +   harmonic
| x   Mute note
| b   Bend
| pb  Pre-bend
| br  Bend release
| pbr Pre-bend release
| brb Bend release bend

************************************
Tap to rate this tab
 
# A B C D E F G H I J K L M N O P Q R S T U V W X Y Z