Song name
# A B C D E F G H I J K L M N O P Q R S T U V W X Y Z

Good Riddance - Trial Of The Century tab

Verse
E|-----------------------------------------------------------------------------------|
B|-----------------------------------------------------------------------------------|
G|-----------------------------------------------------------------------------------|
D|-9-------------------------------9999999999999999--------99999999---------------9--|
A|-99999999999999999999999999999999777777777777777777777777777777779999999999999999--|
E|-77777777777777777777777777777777----------------55555555--------7777777777777777--|
PM  ****************************************************************************** 

E|-----------------------------------------------------------------------------------|
B|-----------------------------------------------------------------------------------|
G|-----------------------------------------------------------------------------------|
D|-99------------------------------9999999999999999--------99999999------9999999999--|
A|-99999999999999999999999999999999777777777777777777777777777777779999999999999999--|
E|-77777777777777777777777777777777----------------55555555--------7777777777777777--|
PM   ********************************************************************  

Chorus (2x)
E|-----------------------------------------------|
B|-----------------------------------------------|
G|-----------------------------------------------|
D|------99999---------------99999----------------|
A|-77777777777999996666677777777779999999999-----|
E|-55555-----777774444455555-----7777777777------|

Bridge
E|------------------------------------------9-9-9-9-9-9-9-9-9-9-9-9-9-9-9-9-|
B|-11-11-11-11-11-11-11-11-11-11-11-11-11-11--------------------------------|
G|-11-11-11-11-11-11-11-11-11-11-11-11-11-11--------------------------------|
D|--------------------------------------------------------------------------|
A|--------------------------------------------------------------------------|
E|--------------------------------------------------------------------------|

E|--------------------------------------------------------------------------|
B|--------------------------------------------------------------------------|
G|--------------------------------------------------------------------------|
D|-------------------------9999999999991111111111111111111111---------------|
A|-5555554444442222222222227777777777779-9-9-9-9-9-9-9-9-9-9----------------|
E|-777777666666444444444444-------------------------------------------------|
Tap to rate this tab
 
# A B C D E F G H I J K L M N O P Q R S T U V W X Y Z