Guitaretab - guitar tabs
Song name
# A B C D E F G H I J K L M N O P Q R S T U V W X Y Z

Good Riddance - Saccharine tab

-------------------------------------------------------------------------------
			     SACCHARINE - Good Riddance
-------------------------------------------------------------------------------
Tabbed by: NvrBEEnBoreder
Email: dont email me

Tuning: Standard

PMx- Palm Mute
.- let ring
/- slide

                                VERSE PART 1

Guitar 1

e|---------------------------------------------------------------------------|
B|---------------------------------------------------------------------------|
G|----------------77777777------------------------77777777-------------------|
D|9-99999955555555777777777777777799999999555555555555555577777777-----------|
A|9-99999955555555555555557777777799999999555555555555555577777777-----------|
E|7-77777733333333--------555555557777777733333333--------55555555-----------|
PM  xxxxxxxxxxxxxxxxxxxxxxxxxxxxxxxxxxxxxxxxxxxxxxxxxxxxxxxxxxxxxx

Guitar 1

e|---------------------------------------------------------------------------|
B|---------------------------------------------------------------------------|
G|---------------------------------------------(x2)--------------------------|
D|7/9-99999/5-55555/12-1212121212/7-7777-------------------------------------|
A|7/9-99999/5-55555/12-1212121212/7-7777-------------------------------------|
E|5/7-77777/3-33333/10-1010101010/5-5555-------------------------------------|
PM    xxxx    xxxx     x x x x      xxxx


Guitar 2

e|88888888888888888888888888888888-------------------------------------------|
B|xxxxxxxxxxxxxxxxxxxxxxxxxxxxxxxx------------------(x2)---------------------|
G|xxxxxxxxxxxxxxxxxxxxxxxxxxxxxxxx-------------------------------------------|
D|99999999999999999999999999999999-------------------------------------------|
A|---------------------------------------------------------------------------|
E|---------------------------------------------------------------------------|

                                   CHORUS

Guitar 1

e|---------------------------------------------------------------------------|
B|---------------------------------------------------------------------------|
G|--------77777777------------------------77777777---------------------------|
D|999999997777777777777777777777779999999977777777777777775-555555-----------|
A|999999995555555577777777777777779999999955555555777777775-555555-----------|
E|77777777--------555555555555555577777777--------555555553-333333-----------|
PM                                                          xxxxxx

Guitar 2

e|---------------------------------------------------------------------------|
B|---------------------------------------------------------------------------|
G|------------------------7-6-46---------------------------------------------|
D|---------------------------------------------------------------------------|
A|---------------------------------------------------------------------------|
E|---------------------------------------------------------------------------|

Guitar 1

e|---------------------------------------------------------------------------|
B|---------------------------------------------------------------------------|
G|--------77777777------------------------77777777---------------------------|
D|9999999977777777777777777777777799999999777777777777777777777777-----------|
A|9999999955555555777777777777777799999999555555557777777777777777-----------|
E|77777777--------555555555555555577777777--------5555555555555555-----------|

Guitar 2

e|---------------------------------------------------------------------------|
B|---------------------------------------------------------------------------|
G|------------------------7-6-46---------------------------------------------|
D|---------------------------------------------------------------------------|
A|---------------------------------------------------------------------------|
E|---------------------------------------------------------------------------|

                               PREVERSE

Guitar 1
[ Tab from: http://www.guitaretab.com/g/good-riddance/68651.html ]
e|---------------------------------------------------------------------------|
B|---------------------------------------------------------------------------|
G|----------------77777777------------------------77777777-------------------|
D|9-99999955555555777777777777777799999999555555555555555577777777-----------|
A|9-99999955555555555555557777777799999999555555555555555577777777-----------|
E|7-77777733333333--------555555557777777733333333--------55555555-----------|
PM  xxxxxxxxxxxxxxxxxxxxxxxxxxxxxxxxxxxxxxxxxxxxxxxxxxxxxxxxxxxxxx


Guitar 2

e|---------------------------------------------------------------------------|
B|---------------------------------------------------------------------------|
G|------------------------7-6-7-4.----------------4-------9-7-6-4-------------|
D|-------------------------------------------------7.-------------------------|
A|---------------------------------------------------------------------------|
E|---------------------------------------------------------------------------|

                            (VERSE PART 1)

                             VERSE PART 2

e|---------------------------------------------------------------------------|
B|---------------------------------------------------------------------------|
G|11111111111111111111111111111111-------------------------------------------|
D|x x x x x x x x x x x x x x x x x-----------------------------------------|
A|9 9 9 9 9 9 9 9 9 9 9 9 9 9 9 9 9------------------------------------------|
E|---------------------------------------------------------------------------|

                               (CHORUS)

Guitar 1

e|---------------------------------------------------------------------------|
B|---------------------------------------------------------------------------|
G|---------------------------------------------------------------------------|
D|9.-----------------------------9.------------------------------------------|
A|9.-----------------------------9.------------------------------------------|
E|7.-----------------------------7.------------------------------------------|


Guitar 1

e|---------------------------------------------------------------------------|
B|---------------------------------------------------------------------------|
G|-----77777-------------------------------(x4)------------------------------|
D|99999777775555555555/9-----------------------------------------------------|
A|99999555555555555555/9-----------------------------------------------------|
E|77777-----3333333333/7-----------------------------------------------------|
PM x x  x x  x x  x x

Guitar 1

e|---------------------------------------------------------------------------|
B|---------------------------------------------------------------------------|
G|--------77777777------------------------77777777---------------------------|
D|9999999977777777555555555555555599999999777777775555555555555555-----------|
A|9999999955555555555555555555555599999999555555555555555555555555-----------|
E|77777777--------333333333333333377777777--------3333333333333333-----------|

Guitar 2

e|---------------------------------------------------------------------------|
B|---------------------------------------------------------------------------|
G|---------------------------------------------------------------------------|
D|------------6764.----------9-7-64.---------6764.-------2.------------------|
A|---------------------------------------------------------------------------|
E|---------------------------------------------------------------------------|

Guitar 1

e|---------------------------------------------------------------------------|
B|---------------------------------------------------------------------------|
G|---------------------------------------------------------------------------|
D|9.-------------------------------------------------------------------------|
A|9.-------------------------------------------------------------------------|
E|7.-------------------------------------------------------------------------|

Guitar 2

e|---------------------------------------------------------------------------|
B|---------------------------------------------------------------------------|
G|4.-------------------------------------------------------------------------|
D|---------------------------------------------------------------------------|
A|---------------------------------------------------------------------------|
E|---------------------------------------------------------------------------|
Related for Saccharine tab
Advertisement will be closed in 10 seconds