Guitaretab - guitar tabs
Song name
# A B C D E F G H I J K L M N O P Q R S T U V W X Y Z

Good Riddance - Torches And Tragedies tab

Artist: Good Riddance
Song  : Torches And Tragedies
Album : My Republic
Tuning: Standart


A - Intro
~ hold note
---33343-----444643------33343----4446433----------------------|
--------4-----------43--------4----------664433664433441~------|
---------------------------------------------------------------|
---------------------------------------------------------------|
---------------------------------------------------------------|
---------------------------------------------------------------|
               
              
B - Intro,verse, prechorus, chorus (different strumming!!)       
---------------------------------------------------------------|
---------------------------------------------------------------|
---5---------6---------5---------6-----------------------------|
---5----6----6----5----5----6----6----5------------------------|
---3----6----4----5----3----6----4----5------------------------|
--------4---------3---------4---------3------------------------|

[ Tab from: http://www.guitaretab.com/g/good-riddance/78086.html ]
A - pre chorus
#- play 3 times
---------------------------------------------------------------|
-----#-----------------#---------------------------------------|
---13-14-13-8--------14-16-14-13/14/13-------------------------|
--------------------------------/--/---------------------------|
---11-12-11-6--------12-14-12-11/12/11-------------------------|
---------------------------------------------------------------|


A - chorus
*play a lot of times with strumming of B
---------------------------------------------------------------|
----*----------------------------------------------------------|
--17-----------------------------------------------------------|
---------------------------------------------------------------|
--15-----------------------------------------------------------|
---------------------------------------------------------------|


A & B - Bridge ??times
? play several times 
---------------------------------------------------------------|
----?--------------?-------------------------------------------|
---6--------------5--------------------------------------------|
---6--------------5--------------------------------------------|
---4--------------3--------------------------------------------|
---------------------------------------------------------------|

then A - chorus
     B - chorus

Done.
Tabbed by Juicehead
Related for Torches And Tragedies tab
Advertisement will be closed in 10 seconds