Guitaretab - guitar tabs
Song name
# A B C D E F G H I J K L M N O P Q R S T U V W X Y Z

Good Riddance - 30 Day Wonder tab

Good Riddance  30 Day Wonder

Tabbed by Mitch Long
Standard Tuning

Intro/Outro:
|-----------------------------------------------|
|-----------------------------------------------|
|--999999----------7-101010101010-7-999999------|
|--999999-8-555555-7-101010101010-7-999999------|
|--777777-8-555555-5-8-8-8-8-8-8--5-777777------|
|---------6-333333------------------------------|

|-------------------------------------|
|-------------------------------------|
|--999999----------7-101010101010-7---|
|--999999-8-555555-7-101010101010-7---|
|--777777-8-555555-5-8-8-8-8-8-8--5---|
|---------6-333333--------------------|

Pre-Verse:
|----------------------------|
|----------------------------|
|--7/99-7/99-7/99-101010-----|	    x3
|--7/99-7/99-7/99-101010-----|
|--5/77-5/77-5/77-8-8-8------|
|----------------------------|

|----------------------------|
|----------------------------|
|--7/99-7/99-7/99-7/99-12----|
|--7/99-7/99-7/99-7/99-12----|
|--5/77-5/77-5/77-5/77-10----|
|----------------------------|
[ Tab from: http://www.guitaretab.com/g/good-riddance/87422.html ]
Verse:
|----------------------------|
|----------------------------|
|--7/99-7/99-7/99-101010-----|	    x3
|--7/99-7/99-7/99-101010-----| 
|--5/77-5/77-5/77-8-8-8------|
|----------------------------|

|----------------------------|
|----------------------------|
|--7/99-7/99-7/99---pick-----|
|--7/99-7/99-7/99---slide----|
|--5/77-5/77-5/77------------|
|----------------------------|



Chorus:
|-----------------------------------------|
|-----------------------------------------|
|--55555555------------9999999999999999---|
|--55555555--66666666--9999999999999999---|
|--33333333--66666666--7777777777777777---|
|------------44444444---------------------|

|-----------------------------------|
|-----------------------------------|
|--55555555-------------------------|
|--55555555--66666666--22-222-2-----|
|--33333333--66666666--22-222-2-----|
|------------44444444--00-000-0-----|
                       .. ...

Verse x1

Chorus x1

Intro/Outro x2

Finish on...

|--------------------------------------------|
|--------------------------------------------|
|--9-99999-99-99999-9--101010101010-7-9/-----|
|--9-99999-99-99999-9--101010101010-7-9/-----|
|--7-77777-77-77777-7-8-8-8-8-8-8--5-7/-----|
|--------------------------------------------|
     .....    .....

Email me with any errors/questions
fallingapart_attheseams@hotmail.com
Related for 30 Day Wonder tab