Song name
# A B C D E F G H I J K L M N O P Q R S T U V W X Y Z

Good Riddance - A Credit To His Gender tab

not my tab, found it on the net

/ pick slide
. palm mute

Intro
e------------------------------------------------------------|
B------------------------------------------------------------|
G--5-------5----5----5----5----------------------------------|
D--5-------5----5----5----5----------------------------------|
A--3-------3----5----3----3----------------------------------|
E------------------------------------------------------------|

e------------------------------------------------------------|
B------------------------------------------------------------|
G--/7-7-7-7-7-7---10---5-5-5-5-5-5---------------------------|  X2
D--/7-7-7-7-7-7---10---5-5-5-5-5-5---7-----------------------|
A--/5-5-5-5-5-5----8---3-3-3-3-3-3---7-----------------------|
E------------------------------------5-----------------------|

Verse
e------------------------------------------------------------|
B------------------------------------------------------------|
G--/7-7-7-7-7-7---10---5-5-5-5-5-5---------------------------|  X4
D--/7-7-7-7-7-7---10---5-5-5-5-5-5---7-----------------------|
A--/5-5-5-5-5-5----8---3-3-3-3-3-3---7-----------------------|
E------------------------------------5-----------------------|
   ............        ...........

Pre Chorus
e----------------------------------------------------------------|
B----------------------------------------------------------------|
G----------------14-12-10-12-------------------------------------|
D--8-8-8-8-8-8----x--x--x--x---8-8-8-8-8-8-8---10-10-10-10-10-10-|
A--8-8-8-8-8-8---12-10--8-10---8-8-8-8-8-8-8---10-10-10-10-10-10-|
E--6-6-6-6-6-6-----------------6-6-6-6-6-6-6----8--8--8--8--8--8-|

Verse
e------------------------------------------------------------|
B------------------------------------------------------------|
G--/7-7-7-7-7-7---10---5-5-5-5-5-5---------------------------|  X4
D--/7-7-7-7-7-7---10---5-5-5-5-5-5---7-----------------------|
A--/5-5-5-5-5-5----8---3-3-3-3-3-3---7-----------------------|
E------------------------------------5-----------------------|
   ............        ...........

Pre Chorus
e----------------------------------------------------------------|
B----------------------------------------------------------------|
G----------------14-12-10-12-------------------------------------|
D--8-8-8-8-8-8----x--x--x--x---8-8-8-8-8-8-8---10-10-10-10-10-10-|
A--8-8-8-8-8-8---12-10--8-10---8-8-8-8-8-8-8---10-10-10-10-10-10-|
E--6-6-6-6-6-6-----------------6-6-6-6-6-6-6----8--8--8--8--8--8-|

Chorus
e------------------------------------------------------------|
B------------------------------------------------------------|
G--7-7---9-------7-7---9-------7-7---9-----------------------|  x2
D--7-7---9---9---7-7---9---9---7-7---9---9---8-8-8-8-8-8-----|
A--5-5---7---9---5-5---7---9---5-5---7---9---8-8-8-8-8-8-----|
E------------7-------------7-------------7---6-6-6-6-6-6-----|

Verse
e------------------------------------------------------------|
B------------------------------------------------------------|
G--/7-7-7-7-7-7---10---5-5-5-5-5-5---------------------------|  X4
D--/7-7-7-7-7-7---10---5-5-5-5-5-5---7-----------------------|
A--/5-5-5-5-5-5----8---3-3-3-3-3-3---7-----------------------|
E------------------------------------5-----------------------|
   ............        ...........

Pre Chorus
e----------------------------------------------------------------|
B----------------------------------------------------------------|
G----------------14-12-10-12-------------------------------------|
D--8-8-8-8-8-8----x--x--x--x---8-8-8-8-8-8-8---10-10-10-10-10-10-|
A--8-8-8-8-8-8---12-10--8-10---8-8-8-8-8-8-8---10-10-10-10-10-10-|
E--6-6-6-6-6-6-----------------6-6-6-6-6-6-6----8--8--8--8--8--8-|

Chorus
e-------------------------------------------------------------|
B-------------------------------------------------------------|
G--7-7--10--------7-7---10--------7-7---10--------------------|  x2
D--7-7--10---10---7-7---10---10---7-7---10---10---8-8-8-8-8-8-|
A--5-5---8---10---5-5----8---10---5-5----8---10---8-8-8-8-8-8-|
E-------------8--------------8----------------8---6-6-6-6-6-6-|

e-------------------------------------------------------------------|
B-------------------------------------------------------------------|
G-------------------------------------------------------------------|
D-------------------------------------------------------------------|
A--5-5-5-5-5--5-5-5-5-5--5-5-5-5-5--5-5-5-5-5--5-5-5-5-5--5-5-5-5-5-|
E-------------------------------------------------------------------|

e--------------------------------------------------------------------|
B--------------------------------------------------------------------|
G------------------------14-14-12-12-9-9-10-10-14-14-12-12-9-9-10-10-|
D--------------------------------------------------------------------|
A--5-5-5-5-5--5-5-5-5-5--12-12-10-10-7-7--8--8-12-12-10-10-7-7--8--8-|
E--------------------------------------------------------------------|

e----------------------------------------------|
B----------------------------------------------|
G--14-14-12-12-9-9-10-10-14-14-12-12-9-9-10-10-|
D----------------------------------------------|
A--12-12-10-10-7-7--8--8-12-12-10-10-7-7--8--8-|
E----------------------------------------------|

e----------------------------------------------------------------------|
B----------------------------------------------------------------------|
G--7-7-7-7-7-7-7-7-7-7-7-7-7-7-7-7-10-10-10-10-10-10-10-10-10-10-10-10-|
D--7-7-7-7-7-7-7-7-7-7-7-7-7-7-7-7-10-10-10-10-10-10-10-10-10-10-10-10-|
A--5-5-5-5-5-5-5-5-5-5-5-5-5-5-5-5--8--8--8--8--8--8--8--8--8--8--8--8-|
E----------------------------------------------------------------------|

e--------------------------------------------------------|
B--------------------------------------------------------|
G--10-10-10-10-9-9-9-9-9-9-9-9-10-10-10-10-10-10-10-10-7-|
D--10-10-10-10-9-9-9-9-9-9-9-9-10-10-10-10-10-10-10-10-7-|
A---8--8--8--8-7-7-7-7-7-7-7-7--8--8--8--8--8--8--8--8-5-|
E--------------------------------------------------------|
Tap to rate this tab
 
# A B C D E F G H I J K L M N O P Q R S T U V W X Y Z