Song name
# A B C D E F G H I J K L M N O P Q R S T U V W X Y Z

Good Shoes - In The City tab

-------------------------------------------------------------------------------
			     In The City - Good Shoes
-------------------------------------------------------------------------------
Tabbed by:Paul Finnigan
Email:indiekidda@hotmail.co.uk

Tuning:AEDGBe

Intro:
Riff I

e|------0------0-----0-----0--------------------------0-----0-----0----0-----|
B|---------------------------------3----3----3----3--------------------------|
G|-0h2h5--0h2h5-0h2h5-0h2h5-------3----3----3----3--0h2h5-0h2h5-0h2h5-0h2h5--|
D|-----------------------------3h5--3h5--3h5--3h5----------------------------|
A|---------------------------------------------------------------------------|
E|---------------------------------------------------------------------------|

e|--------------------------------------------------------------------------|
B|-----3----3--5-3-3-3-5-7/10-----------------------------------------------|
G|----3----3------6-5-------------------------------------------------------|
D|-3h5--3h5-----------------------------------------------------------------|
A|--------------------------------------------------------------------------|
E|--------------------------------------------------------------------------|

Verses. (I haven't noted how many times to strum the chords, you mjst refer back to the 
to get the strumming adn timing right)

e|--------7-8---------------------------------------------------------------|
B|--------7-8---------------------------------------------------------------|
G|-10-5-7-6-7---------------------------------------------------------------|
D|-10-5-7-7-8---------------------------------------------------------------|
A|-8--3-5-7-8---------------------------------------------------------------|
E|--------5-6---------------------------------------------------------------|

Solo part in between next verse (unfinished). Just to give an idea, or atleast a start 
you. "2:31" (album version)

e|-17--17--17-18-18-17\--12-?-----------------------------------------------|
B|---18--18------------13--?------------------------------------------------|
G|--------------------------------------------------------------------------|
D|--------------------------------------------------------------------------|
A|--------------------------------------------------------------------------|
E|--------------------------------------------------------------------------|


| /  slide up
| \  slide down
| h  hammer-on
| p  pull-off
| ~  vibrato
| +  harmonic
| x  Mute note
===============================================================================
Tap to rate this tab
 
# A B C D E F G H I J K L M N O P Q R S T U V W X Y Z