Song name
# A B C D E F G H I J K L M N O P Q R S T U V W X Y Z

Good Shoes - All In My Head tab

SOLO
|---------------------------------------------------------|
|---------------------------------------------------------|
|---------------------------------------------------------|
|----------------11--11~--9--9--999-7---------------------|
|-7-9-11-9-7-9-7---------------------11-9-11-9-11-9-9-7-7-|
|---------------------------------------------------------|

|--------------------------------------------171717171717-|
|----1010-9-xx-1515-15-14------15--------1717171717171717-|
|----9-9--9-xx-1414-14-14-14-1314--------1717171717171717-|
|----9-9--9-xx-1414-14-14------14strummed1717171717171717-|
|777-----------1212-12-12------12fast----1515151515151515-|
|---------------------------------------------------------|

|------------------12-12----12-14p12----------------------|
|----12----12------12-12---12-----------------------------|
|------13----13----12-12--12--------13-14~p12-------------|
|1414~---14-----14---------------------------14-14-14p12--|
|---------------------------------------------------------|
|---------------------------------------------------------|

|----------------------------------------------------1111-|
|---------------------7--7----5----5-5-5-s121212-12121212-|
|----------------------8--8-----6--6-6-6-s131313-13131313-|
|-12s11-11s9-9-9~--9----9--9-----7-7-7-7-s-----------1414-|
|---------------------------------------------------------|
                             Last chord strummed for emphasis

Tap to rate this tab
# A B C D E F G H I J K L M N O P Q R S T U V W X Y Z