Good Shoes - Under Control tab

E:--------------------------------------------------------------------|
B:--------------------------------------------------------------------|
G:--------------------------------------------------------------------|
D:--------------------------------------------------------------------|
A:---7-7---7-7----7--9---10---12----3-3---3-3----3---5---7---10-------|
E:-5-----5------5---7---8---10----1-----1------1---3---5---8----------|

E:--------------------------------------------------------------------|
B:--------------------------------------------------------------------|
G:---7-5------7--5----------------------------------------------------|
D:-------7---------7------7----5----10----9---------------------------|
A:--5-------5-----------5----3----8-----7-------7-7---7-7---5-5---5-5-| (2x)
E:--------------------------------------------5-----5-----3-----3-----|
Tap to rate this tab
 
# A B C D E F G H I J K L M N O P Q R S T U V W X Y Z