Song name
# A B C D E F G H I J K L M N O P Q R S T U V W X Y Z

Good With Grenades - Bruises Bitemarks tab

Bruises & Bitemarks
Good With Grenades
Identity

Tabbed by: tOm
Standard Tuning
*Note this isn't near perfect, I tabbed this
 to give an idea on how the song goes.

[Intro]
Gtr.1
|-----------------------------------------------|
|-----------------------------------------------|
|-9-9--9-9--9-9--999999--7-7--7-7--7-7--777777--|
|-x-x--x-x--x-x--777777--x-x--x-x--x-x--555555--|
|-7-7--7-7--7-7----------5-5--5-5--5-5----------|
|-----------------------------------------------|

Gtr.2
|-----------------------------------------------|
|-----------------------------------------------|
|----------------777777-----------------555555--|
|-7-7--7-7--7-7--777777--5-5--5-5--5-5--555555--|
|-7-7--7-7--7-7--555555--5-5--5-5--5-5--333333--|
|-5-5--5-5--5-5----------3-3--3-3--3-3----------|

[End Intro On]
Gtr.1	Gtr.2
|------|------|
|------|------|
|--9^--|------|
|--x^--|--7^--|
|--7^--|--7^--|
|------|--5^--|

[Verse]
Gtr.1
|----------------------|---------------------------|
|----------------------|---------------------------|
|-999999-77777--777777-|-99999--999999-7777777777--|
|-777777-xxxxx--555555-|-xxxxx--777777-xxxxxxxxx---|
|--------55555---------|-77777---------5555555555--|
|----------------------|---------------------------|

Gtr.1
|-----------------------------|---------------------------|
|-----------------------------|---------------------------|
|-99999--999999-77777--777777-|-99999--999999-7777777777--|
|-xxxxx--777777-xxxxx--555555-|-xxxxx--777777-xxxxxxxxxx--|
|-77777---------55555---------|-77777---------5555555555--|
|-----------------------------|---------------------------|

Gtr.2
|-----------------------------|---------------------------|
|-----------------------------|---------------------------|
|--------777777--------555555-|--------777777-------------|
|-77777--777777-55555--555555-|-77777--777777-5555555555--|
|-77777--555555-55555--333333-|-77777--555555-5555555555--|
|-55555---------33333---------|-55555---------3333333333--|

[Chorus]
Both Guitars
|-------------------------------------------------------|
|-------------------------------------------------------|
|-9------------14------------12-----------10------------|
|-x-(x2counts)-x--(x2counts)-x-(x3counts)-x--(x1count)--|
|-7------------12------------10-----------8-------------|
|-------------------------------------------------------|

[Intro Again]
^I think they hit an E5 at the end of the intro.

[Verse 2]
^Theres no guitar for the first half but the bass goes
 something like this.
|-----------------------------|
|-----------------------------|
|--------355555--------233333-|
|-55555---------33333---------|

Gtr.1
|----------------------------------------------|
|----------------------------------------------|
|-----9-------8h10p8----------7-------6h8p6----|
|-77777-7-8-10------10-8--55555-5-6-8------8-6-|
|----------------------------------------------|
|----------------------------------------------|
Pm....  . . .       .  .  ....  . . .      . .


[Chours Again]

[Bridge]
Gtr.1
|--------------|
|--------------|
|--2~-0-0~-----|
|--------------|
|--------------|
|--------------|

Gtr.1
|---------------------|
|---------------------|
|-99999--77-----------|
|-99999--77-----------|
|-77777--55-----------|
|---------------------|

Gtr.2
|---------------------|
|---------------------|
|---------------------|
|-77777--55-----------|
|-77777--55-----------|
|-55555--33-----------|

Gtr.1
|---------------------|
|---------------------|
|-9/10/12//17---------|
|-x/x--x---x----------|
|-7/8//10//15---------|
|---------------------|


[Chorus Again]
[Intro Again]
[Ending is something like this]
|-----------------|
|-----------------|
|-----------------|
|-77-57-77-75~----|
|-77-57-77-75~----|
|-55-35-55-53~----|

http://www.myspace.com/goodwithgrenades
Tap to rate this tab
# A B C D E F G H I J K L M N O P Q R S T U V W X Y Z