Song name
# A B C D E F G H I J K L M N O P Q R S T U V W X Y Z

Goodbye Elliott - Babyface Nelson tab

Babyface Nelson

C Sharp
* = Pause
/ = Slide

C  :--------------------|------------------|--------------------|
B  :12--------12--------|9--------9--------|12--------12--------|
F# :---10--------10-----|--10-------10-----|---10--------10-----|
C# :------0---------0---|-----7--------7---|------8---------8---|
G# :--------------------|------------------|--------------------|
C# :--------------------|------------------|--------------------|

C  :--------------------|--------------------|------------------|
B  :9---------9---------|12--------12--------|9--------9--------|
F# :--10--------10------|---10--------10-----|--10-------10-----|
C# :-----10--------10---|------0---------0---|-----7--------7---|
G# :--------------------|--------------------|------------------|
C# :--------------------|--------------------|------------------|

C  :--------------------|------------------|----------------|
B  :12--------12--------|9---------9-------|----------------|
F# :---10--------10-----|--10--------------|----------------|
C# :------8---------8---|-----10-----------|0-0-0-0-0-0-0-0-|
G# :--------------------|------------------|0-0-0-0-0-0-0-0-|
C# :--------------------|------------------|0-0-0-0-0-0-0-0-|

C  :----------------|----------------|-------------------|----------------|
B  :----------------|----------------|-------------------|----------------|
F# :----------------|----------------|-------------------|----------------|
C# :7-7-7-7-7-7-7-7-|8-8-8-8-8-7-7-7-|5-5-5-5-5-10-10-10-|0-0-0-0-0-0-0-0-|
G# :7-7-7-7-7-7-7-7-|8-8-8-8-8-7-7-7-|5-5-5-5-5-10-10-10-|0-0-0-0-0-0-0-0-|
C# :7-7-7-7-7-7-7-7-|8-8-8-8-8-7-7-7-|5-5-5-5-5-10-10-10-|0-0-0-0-0-0-0-0-|

C  :----------------|----------------|-------------------|
B  :----------------|----------------|-------------------|
F# :----------------|----------------|-------------------|
C# :7-7-7-7-7-7-7-7-|8-8-8-8-8-7-7-7-|5-5-5-5-5-10-10-10-|
G# :7-7-7-7-7-7-7-7-|8-8-8-8-8-7-7-7-|5-5-5-5-5-10-10-10-|
C# :7-7-7-7-7-7-7-7-|8-8-8-8-8-7-7-7-|5-5-5-5-5-10-10-10-|

C  :------------------|------------------|----------------|
B  :------------------|------------------|----------------|
F# :------------------|------------------|----------------|
C# :0-0-7-------10-10-|10-8-7------------|5-5-7-------8-8-|
G# :0-0---8-7---10-10-|-------10-0-5-7-8-|5-5---8-7---8-8-|
C# :0-0---------10-10-|------------------|5-5---------8-8-|

C  :-------------------|------------------|------------------|
B  :-------------------|------------------|------------------|
F# :----------------10-|------------------|------------------|
C# :----10-----10------|0-0-7-------10-10-|10-8-7------------|
G# :7-8----7-8----7----|0-0---8-7---10-10-|-------10-0-5-7-8-|
C# :-------------------|0-0---------10-10-|------------------|

C  :----------------|-------------------|--------------------|
B  :----------------|-------------------|--------------------|
F# :----------------|----------------10-|--------------------|
C# :5-5-7-------8-8-|----10-----10------|0-*---0-0-0*0-0-0*--|
G# :5-5---8-7---8-8-|7-8----7-8----7----|0-*---0-0-0*0-0-0*--|
C# :5-5---------8-8-|-------------------|0-*---0-0-0*0-0-0*--|

C  :----------------------|--------------------------|--------------------|
B  :--------------9-------|--------------------------|--------------------|
F# :--------------9-------|--------------------------|--------------------|
C# :--0-0-0-0-0-0---8-8-8-|*-0-7-10-------0-0-0-0-0-0|0-*---0-0---0-0-0*--|
G# :--0-0-0-0-0-0-8-8-8-8-|*--------0-7-8-0-0-0-0-0-0|0-*---0-0---0-0-0*--|
C# :--0-0-0-0-0-0---8-8-8-|*--------------0-0-0-0-0-0|0-*---0-0-0-0-0-0*--|

C  :----------------------|--------------------------|----------------|
B  :--------------9-------|--------------------------|----------------|
F# :--------------9-------|--------------------------|----------------|
C# :--0-0-0-0-0-0---8-8-8-|*-0-7-10-------0-0-0-0-0-0|0---------------|
G# :--0-0-0-0-0-0-8-8-8-8-|*--------0-7-8-0-0-0-0-0-0|0---------------|
C# :--0-0-0-0-0-0---8-8-8-|*--------------0-0-0-0-0-0|0---------------|

C  :-------------------|----------------|----------------|
B  :-------------------|----------------|----------------|
F# :-------------------|----------------|----------------|
C# :0-0-*-0-*---0-0-0-0|0-*---0-0-*-0-0-|0-0-*-0-*-------|
G# :0-0-*-0-*---0-0-0-0|0-*---0-0-*-0-0-|0-0-*-0-*-------|
C# :0-0-*-0-*---0-0-0-0|0-*---0-0-*-0-0-|0-0-*-0-*---1/--|

C  :-------------------4-|-------------------|----------------|
B  :-------------------4-|-------------------|----------------|
F# :---------------------|-------------------|----------------|
C# :---------0-0-8-0-0---|0-0-*-0-*---0-0-0-0|0-*---0-0-*-0-0-|
G# :---------0-0-8-0-0---|0-0-*-0-*---0-0-0-0|0-*---0-0-*-0-0-|
C# :12-------0-0-8-0-0---|0-0-*-0-*---0-0-0-0|0-*---0-0-*-0-0-|

C  :----------------|-------------------4-|----------------|
B  :----------------|-------------------4-|----------------|
F# :----------------|---------------------|----------------|
C# :0-0-*-0-*-------|---------0-0-8-0-0---|3-3-3-3-3-3-3-3-|
G# :0-0-*-0-*-------|---------0-0-8-0-0---|0-0-0-0-0-0-0-0-|
C# :0-0-*-0-*---1/--|12-------0-0-8-0-0---|0-0-0-0-0-0-0-0-|

C  :----------------|----------------|-----------------|
B  :----------------|----------------|-----------------|
F# :----------------|----------------|-----------------|
C# :3-3-3-3-3-3-3-3-|5-5-5-5-5-5-5-5-|5-5-5-5-5-5-5-0-0|
G# :0-0-0-0-0-0-0-0-|5-5-5-5-5-5-5-5-|5-5-5-5-5-5-5-0-0|
C# :0-0-0-0-0-0-0-0-|5-5-5-5-5-5-5-5-|5-5-5-5-5-5-5-0-0|

C  :---------------------|---------------------|---------------------|
B  :---------------------|---------------------|---------------------|
F# :10-----10------------|10-----10------------|10-----10------------|
C# :10-0-0-10-8--7---0-0|10-0-0-10-8---7---0-0|10-0-0-10-8---7---0-0|
G# :-8-0-0--8-------8-0-0|-8-0-0--8-------8-0-0|-0-0-0--0-------8-0-0|
C# :-8-0-0--8---------0-0|-8-0-0--8---------0-0|-0-0-0--0---------0-0|

C  :----------------|----------------|----------------|----------------|
B  :----------------|----------------|----------------|----------------|
F# :----------------|----------------|----------------|----------------|
C# :7-7-7-7-7-5-5-5-|3-3-3-3-3-3-3-3-|3-3-3-3-3-3-3-3-|5-5-5-5-5-5-5-5-|
G# :7-7-7-7-7-5-5-5-|0-0-0-0-0-0-0-0-|0-0-0-0-0-0-0-0-|5-5-5-5-5-5-5-5-|
C# :7-7-7-7-7-5-5-5-|0-0-0-0-0-0-0-0-|0-0-0-0-0-0-0-0-|5-5-5-5-5-5-5-5-|

C  :-----------------|---------------------|---------------------|
B  :-----------------|---------------------|---------------------|
F# :-----------------|10-----10------------|10-----10------------|
C# :5-5-5-5-5-5-5-0-0|10-0-0-10-8---7---0-0|10-0-0-10-8---7---0-0|
G# :5-5-5-5-5-5-5-0-0|-8-0-0--8-------8-0-0|-8-0-0--8-------8-0-0|
C# :5-5-5-5-5-5-5-0-0|-8-0-0--8---------0-0|-8-0-0--8---------0-0|

C  :---------------------|----------------|----------------|
B  :---------------------|----------------|----------------|
F# :10-----10------------|----------------|----------------|
C# :10-0-0-10-8---7---0-0|7-7-7-7-7-5-5-5-|0---------------|
G# :-0-0-0--0-------8-0-0|7-7-7-7-7-5-5-5-|0---------------|
C# :-0-0-0--0---------0-0|7-7-7-7-7-5-5-5-|0---------------|

C  :----------------|------------------|------------------|
B  :----------------|------------------|------------------|
F# :----------------|------------------|------------------|
C# :--3-2-----------|0-0-----------0-0-|----------0-0-*0-*|
G# :------1-0-----4-|0-0-----------0-0-|----------0-0-*0-*|
C# :----------3-2---|0-0-3-0-0-2---0-0-|3-0-0-2---0-0-*0-*|

C  :---------------------|----------------|------------------|
B  :---------------------|----------------|------------------|
F# :---------------------|----------------|------------------|
C# :0-0-----------0-0-0-0|0-3-2-----------|0-0-8-0-0-7---0-0-|
G# :0-0-----------0-0-0-0|0-----1-0-----4-|0-0-----------0-0-|
C# :0-0-3-0-0-2---0-0-0-0|0---------3-2---|0-0-----------0-0-|

C  :------------------|---------------------|----------------|
B  :------------------|---------------------|----------------|
F# :------------------|---------------------|----------------|
C# :8-0-0-7---0-0-*0-*|0-0-8-0-0-7---0-0-0-0|0-3-2-----------|
G# :----------0-0-*0-*|0-0-----------0-0-0-0|0-----1-0-----4-|
C# :----------0-0-*0-*|0-0-----------0-0-0-0|0---------3-2---|

C  :------------------|------------------|---------------------|
B  :------------------|------------------|---------------------|
F# :------------------|------------------|---------------------|
C# :0-0-----------0-0-|----------0-0-*0-*|0-0------------------|
G# :0-0-----------0-0-|----------0-0-*0-*|0-0-----------1-1-1-1|
C# :0-0-3-0-0-2---0-0-|3-0-0-2---0-0-*0-*|0-0-3-0-0-2---0-0-0-0|

C  :----------------|----------------|----------------|----------------|
B  :----------------|----------------|----------------|----------------|
F# :----------------|----------------|----------------|----------------|
C# :--3-2-----------|0-*-------------|----------------|0-*-------------|
G# :1-----1-0-----4-|0-*-------------|----------1-1-1-|0-*-------------|
C# :0---------3-2---|0-*-------------|----------0-0-0-|0-*-------------|

C  :----------------|----------------|----------------|----------------|
B  :----------------|----------------|----------------|----------------|
F# :----------------|----------------|----------------|----------------|
C# :----------------|3-3-3-3-3-3-3-3-|3-3-3-3-3-3-3-3-|5-5-5-5-5-5-5-5-|
G# :----------------|0-0-0-0-0-0-0-0-|0-0-0-0-0-0-0-0-|5-5-5-5-5-5-5-5-|
C# :----------------|0-0-0-0-0-0-0-0-|0-0-0-0-0-0-0-0-|5-5-5-5-5-5-5-5-|

C  :-----------------|---------------------|---------------------|
B  :-----------------|---------------------|---------------------|
F# :-----------------|10-----10------------|10-----10------------|
C# :5-5-5-5-5-5-5-0-0|10-0-0-10-8---7---0-0|10-0-0-10-8---7---0-0|
G# :5-5-5-5-5-5-5-0-0|-8-0-0--8-------8-0-0|-8-0-0--8-------8-0-0|
C# :5-5-5-5-5-5-5-0-0|-8-0-0--8---------0-0|-8-0-0--8---------0-0|

C  :---------------------|----------------|----------------|
B  :---------------------|----------------|----------------|
F# :10-----10------------|----------------|----------------|
C# :10-0-0-10-8---7---0-0|7-7-7-7-7-5-5-5-|3-3-3-3-3-3-3-3-|
G# :-0-0-0--0-------8-0-0|7-7-7-7-7-5-5-5-|0-0-0-0-0-0-0-0-|
C# :-0-0-0--0---------0-0|7-7-7-7-7-5-5-5-|0-0-0-0-0-0-0-0-|

C  :----------------|----------------|-----------------|
B  :----------------|----------------|-----------------|
F# :----------------|----------------|-----------------|
C# :3-3-3-3-3-3-3-3-|5-5-5-5-5-5-5-5-|5-5-5-5-5-5-5-0-0|
G# :0-0-0-0-0-0-0-0-|5-5-5-5-5-5-5-5-|5-5-5-5-5-5-5-0-0|
C# :0-0-0-0-0-0-0-0-|5-5-5-5-5-5-5-5-|5-5-5-5-5-5-5-0-0|

C  :---------------------|---------------------|---------------------|
B  :---------------------|---------------------|---------------------|
F# :10-----10------------|10-----10------------|10-----10------------|
C# :10-0-0-10-8---7---0-0|10-0-0-10-8---7---0-0|10-0-0-10-8---7---0-0|
G# :-8-0-0--8-------8-0-0|-8-0-0--8-------8-0-0|-0-0-0--0-------8-0-0|
C# :-8-0-0--8---------0-0|-8-0-0--8---------0-0|-0-0-0--0---------0-0|

C  :----------------|----------------|----------------|--------------------|
B  :----------------|----------------|----------------|--------------------|
F# :----------------|----------------|----------------|--------------------|
C# :7-7-7-7-7-5-5-5-|3---3-3-3-3-3-3-|3-3-3-3-3-*-----|--------------------|
G# :7-7-7-7-7-5-5-5-|0---0-0-0-0-0-0-|0-0-0-0-0-*-----|-------------0-0-0-0|
C# :7-7-7-7-7-5-5-5-|0---0-0-0-0-0-0-|0-0-0-0-0-*-----|0--12--3--8--1-1-1-1|

C  :--------------------------|-----------------|-----------------|
B  :--------------------------|-----------------|-----------------|
F# :--------------------------|-----------------|-----------------|
C# :---------0-10-8-7---------|--------10-------|--------10-------|
G# :------------------8-7-----|------------8--7-|------------8--7-|
C# :0--12--0--------------10-7|8888888----------|5555555----------|

C  :--------------------|--------------------------|-----------------|
B  :--------------------|--------------------------|-----------------|
F# :--------------------|--------------------------|-----------------|
C# :--------------------|---------0-10-8-7---------|--------10-------|
G# :-------------0-0-0-0|------------------8-7-----|------------8--7-|
C# :0--12--3--8--1-1-1-1|0--12--0--------------10-7|8888888----------|

C  :-----------------|--------------------|--------------------------|
B  :-----------------|--------------------|--------------------------|
F# :-----------------|--------------------|--------------------------|
C# :--------10-------|--------------------|---------0-10-8-7---------|
G# :------------8--7-|-------------0-0-0-0|------------------8-7-----|
C# :5555555----------|0--12--3--8--1-1-1-1|0--12--0--------------10-7|

C  :-----------------|-----------------|--------------------|
B  :-----------------|-----------------|--------------------|
F# :-----------------|-----------------|--------------------|
C# :--------10-------|--------10-------|--------------------|
G# :------------8--7-|------------8--7-|-------------0-0-0-0|
C# :8888888----------|5555555----------|0--12--3--8--1-1-1-1|

C  :--------------------------|-----------------|-----------------|
B  :--------------------------|-----------------|-----------------|
F# :--------------------------|-----------------|-----------------|
C# :---------0-10-8-7---------|--------10-------|--------10-------|
G# :------------------8-7-----|------------8--7-|------------8--7-|
C# :0--12--0--------------10-7|8888888----------|5555555----------|

C  :----------------|-----------------|----------------|----------------|
B  :----------------|-----------------|----------------|----------------|
F# :----------------|-----------------|----------------|----------------|
C# :0-*0-*0-*0-*0-*-|-0-*0-*--0-*0-0-0|0-*0-*0-*0-*0-*-|-0-*0-*---------|
G# :0-*0-*0-*0-*0-*-|-0-*0-*--0-*0-0-0|0-*0-*0-*0-*0-*-|-0-*0-*---------|
C# :0-*0-*0-*0-*0-*-|-0-*0-*--0-*0-0-0|0-*0-*0-*0-*0-*-|-0-*0-*---------|

C  :----------------|-----------------|----------------|----------------|
B  :----------------|-----------------|----------------|----------------|
F# :----------------|-----------------|----------------|----------------|
C# :0--0--0--0--0---|-0--0----0--0-0-0|0--0--0--0--0---|-0--0----0--0-*-|
G# :0--0--0--0--0---|-0--0----0--0-0-0|0--0--0--0--0---|-0--0----0--0-*-|
C# :1--1--1--1--1---|-1--1----1--1-1-1|1--1--1--1--1---|-1--1----1--1-*-|

C  :----------------|-----------------|----------------|----------------|
B  :----------------|-----------------|----------------|----------------|
F# :----------------|-----------------|----------------|----------------|
C# :0--0--0--0--0---|-0--0----0--0-0-0|0--0--0--0--0---|-0--0----0--0-*-|
G# :0--0--0--0--0---|-0--0----0--0-0-0|0--0--0--0--0---|-0--0----0--0-*-|
C# :1--1--1--1--1---|-1--1----1--1-1-1|1--1--1--1--1---|-1--1----1--1-*-|

C  :-----------------------|--------------------------|
B  :-----------------------|--------------------------|
F# :-----------------------|--------------------------|
C# :-----------------------|--------------------------|
G# :-----------------------|-----------0-0-0-0-4-4-4-4|
C# :0-0-0-0-8-8-8-8-0-0-0-1|--0-0-0-7-----------------|

C  :-----------------------|--------------------------|
B  :-----------------------|--------------------------|
F# :-----------------------|--------------------------|
C# :-----------------------|--------------------------|
G# :-----------------------|-----------0-0-0-0-4-4-4-4|
C# :0-0-0-0-8-8-8-8-0-0-0-1|--0-0-0-7-----------------|

C  :-----------------------|--------------------------|
B  :-----------------------|--------------------------|
F# :-----------------------|--------------------------|
C# :0-0-0-0-3-3-3-3-0-0-0-2|--0-0-0-5----------7-7-7-7|
G# :-----------------------|-----------0-0-0-0--------|
C# :-----------------------|--------------------------|

C  :-----------------------|-----------------------|----------------|
B  :-----------------------|-----------------------|----------------|
F# :-----------------------|-----------------------|----------------|
C# :0-0-0-0-3-3-3-3-0-0-0-2|--0-0-0-5--0-0-0-0-0-*-|5-5-5-5-5-5-5-5-|
G# :-----------------------|-----------0-0-0-0-0-*-|5-5-5-5-5-5-5-5-|
C# :-----------------------|-----------0-0-0-0-0-*-|5-5-5-5-5-5-5-5-|

C  :----------------|----------------|----------------|----------------|
B  :----------------|----------------|----------------|----------------|
F# :----------------|----------------|----------------|----------------|
C# :5-5-5-5-7-7-7-7-|8-8-8-8-8-8-8-8-|8-8-8-8-8-8-8-8-|3-3-3-3-3-3-3-3-|
G# :5-5-5-5-7-7-7-7-|8-8-8-8-8-8-8-8-|8-8-8-8-8-8-8-8-|0-0-0-0-0-0-0-0-|
C# :5-5-5-5-7-7-7-7-|8-8-8-8-8-8-8-8-|8-8-8-8-8-8-8-8-|0-0-0-0-0-0-0-0-|

C  :----------------|----------------|------------------------|
B  :----------------|----------------|------------------------|
F# :----------------|----------------|------------------------|
C# :3-3-3-3-3-3-3-3-|3-3-3-3-3-3-3-3-|10-10-10-10-10-10-10-10-|
G# :0-0-0-0-0-0-0-0-|3-3-3-3-3-3-3-3-|10-10-10-10-10-10-10-10-|
C# :0-0-0-0-0-0-0-0-|3-3-3-3-3-3-3-3-|10-10-10-10-10-10-10-10-|

C  :----------------|----------------|----------------|----------------|
B  :----------------|----------------|----------------|----------------|
F# :----------------|----------------|----------------|----------------|
C# :8-8-8-*-------8-|8-8-8-*-------7-|5-5-5-*-------5-|5-5-5-*-------7-|
G# :8-8-8-*---7---8-|8-8-8-*---7---7-|5-5-5-*---8---5-|5-5-5-*---8---7-|
C# :8-8-8-*-------8-|8-8-8-*-------7-|5-5-5-*-------5-|5-5-5-*-------7-|

C  :----------------|----------------|----------------|----------------|
B  :----------------|----------------|----------------|5---------------|
F# :----------------|----------------|----------------|5---------------|
C# :0-0-0-*---7---0-|0-0-0-*---7---0-|3--3--3-3--3--3-|3---------------|
G# :0-0-0-*-------0-|0-0-0-*-------0-|3--0--0-0--0--0-|0---------------|
C# :0-0-0-*-------0-|0-0-0-*-------0-|3--0--0-0--0--0-|0---------------|
Tap to rate this tab
 
# A B C D E F G H I J K L M N O P Q R S T U V W X Y Z