Song name
# A B C D E F G H I J K L M N O P Q R S T U V W X Y Z

Goodbye Elliott - Ticket To Love tab

Goodbye Elliott\'s \"Ticket To Love\"
www.goodbyeelliott.com
tabbed by Rene Anguiano
hbfootballplaya13@yahoo.com

So This Is My First Tab so its probably not completely right haha but w/e

It starts off with the base drum
Intro...
e----------------------------------------------|
B-------9--11--13--------9--11--11-------------|
G-------6--8---10--10----6--8---8---8----------|
D-6----------------8----------------6----------|
A-4--------------------------------------------|
E----------------------------------------------|    2x
  Let Ring


Verse 1 \"I want a ticket to some....\"

Guitar 1 (palmuted) This is played throughout the song
e----------------------------------------|
B----------------------------------------|
G----------------------------------------|
D-6-6-6-6-6------------------------------|
A-4-4-4-4-4------------------------------|
E----------------------------------------|

\"I want a ticket to some...anywhere but here\"

Guitar 2
e---------------------9---9----------------|
B-9-9-9p6-------6/9-9---9------------------|
G---------8--------------------------------|
D------------------------------------------|
A------------------------------------------|
E------------------------------------------|

Verse 2 (this is played when theres no drums)

\"If it\'s not enough yet...\"

e-------9-----------------------------------|
B---------9---------------------------------|
G-6-6-6-------------------------------------|
D-------------------------------------------|
A-------------------------------------------|
E-------------------------------------------| repeat until drums come back

Verse 3 (this is when it gets more rockish)

e----------------------------------------------|
B----------------------------------------------|
G----6-----------------------------------------|
D-8--6--6-6-6-6-6-6----------------------------|
A-8--4--6-6-6-6-6-6----------------------------|
E-6-----4-4-4-4-4-4----------------------------|

Verse 4
\"Boat or plane...\"
e---------------------------------------------|
B---------------------------------------------|
G-6-6-6-6-6-----------------------------------|
D-6-6-6-6-6-----------------------------------|
A-4-4-4-4-4-----------------------------------|
E---------------------------------------------| repeat until next chorus

Verse 5
\"If its not enough yet\"

e---------------------------------------------|
B---------------------------------------------|
G-----------6-6-6-6-------------6-6-6-6-------|
D-8-8-8-8---6-6-6-6---6-6-6-6---6-6-6-6-------|
A-8-8-8-8---4-4-4-4---6-6-6-6---4-4-4-4-------|
E-6-6-6-6-------------4-4-4-4-----------------|

So this is pretty much it. please rate it and email me if you have corrections
Tap to rate this tab
 
# A B C D E F G H I J K L M N O P Q R S T U V W X Y Z