Song name
# A B C D E F G H I J K L M N O P Q R S T U V W X Y Z

Goodbye Tomorrow - If Your Eyes Were Mine tab

Tabbed by Chris Perez
TUNING:DADGAD  ^=bend

intro: guitar 1

D-0-0-0-0-0-0-0-0-0-0-0-0-0-0-0-0--|
A-0-0-0-0-0-0-0-0-0-0-0-0-0-0-0-0--|
G-7-7-7-7-7-7-7-7-7-7-7-7-7-7-7-7--|
D-9-9-9-9-9-9-9-9-7-7-7-7-7-7-7-7--| x2
A-9-9-9-9-9-9-0-0-5-5-5-5-5-5-5-5--|
D----------------------------------|

Verse Guitar 1

D-0-0-0-0-0-0-0-0-0-0-0-0--|
A-0-0-0-0-0-0-0-0-0-0-0-0--|
G-7-7-7-7-7-7-7-7-7-7-7-7--|
D-9-9-9-9-9-9-9-9-7-7-7-7--| x4
A-9-9-9-9-9-9-9-9-5-5-5-5--|
D--------------------------|

Verse Guitar 2

D---------------------------------0-|
A-----0--------0----------------0---|
G---7-------11---11-----11----6-----|
D-9------12----------12-----7-------| x4
A-----------------------------------|
D-----------------------------------|

Chorus 1 Guitar 1

D-0-0-0-0-0-0-0-0-0-0-0-0-0-0-0-0-0-0-0-0-0-0-0-0-0-0-0-0-|
A-0-0-0-0-0-0-0-0-0-0-0-0-0-0-0-0-0-0-0-0-0-0-0-0-0-0-0-0-|
G-7-7-7-7-7-7-7-7-6-6-6-6-6-6-6-6-7-7-7-7-7-7-7-7-6-6-6-6-|
D-7-7-7-7-7-7-7-7-7-7-7-7-7-7-7-7-7-7-7-7-7-7-7-7-7-7-7-7-|
A-5-5-5-5-5-5-5-5-5-5-5-5-5-5-5-5-5-5-5-5-5-5-5-5-5-5-5-5-|
D---------------------------------------------------------|

D-0-0-0-0-0-0-0-0-0-0-0-0-0-0-0-0-0-0-0-0-0-0-0-0-|
A-0-0-0-0-0-0-0-0-0-0-0-0-0-0-0-0-0-0-0-0-0-0-0-0-|
G-7-7-7-7-7-7-7-7-6-6-6-6-6-6-6-6-7-7-7-7-7-7-7-7-|
D-7-7-7-7-7-7-7-7-7-7-7-7-7-7-7-7-7-7-7-7-7-7-7-7-|
A-5-5-5-5-5-5-5-5-5-5-5-5-5-5-5-5-5-5-5-5-5-5-5-5-|
D-------------------------------------------------|

Chorus 1 Guitar 2

D---0----0-----0-----0-------0------0---0-------0-----0----0-----|
A-----0----0-----------0-------0----------0-------0----------0---|
G-7-----7----7----6-------7-------7---7------7------7----6-----7-|
D----------------------------------------------------------------|
A----------------------------------------------------------------|
D----------------------------------------------------------------|

D---0------0-----0----0-----0-----0----0-----0-----0-|
A-----0------0----------0-----0----------0-----0-----|
G-7-----7------7---6------7-----7----7-----7-----7---|
D----------------------------------------------------|
A----------------------------------------------------|
D----------------------------------------------------|

cool part guitar 2

D-12-11-9---------------------|
A---------12-10-9-7-5---------|
G----------------------6^-----|
D-------------------------7/4-|
A-----------------------------|
D-----------------------------|

Verse 2 Guitar 1

D-0-0-0-0-0-0-0-0-0-0-0-0-0-0-0-0--|
A-0-0-0-0-0-0-0-0-0-0-0-0-0-0-0-0--|
G-7-7-7-7-7-7-7-7-6-6-6-6-6-6-6-6--|
D-7-7-7-7-7-7-7-7-7-7-7-7-7-7-7-7--| x3
A-5-5-5-5-5-5-5-5-5-5-5-5-5-5-5-5--|
D----------------------------------|

D-0-0-0-0-0-0-0-0-0-0-0-0-|
A-0-0-0-0-0-0-0-0-0-0-0-0-|
G-7-7-7-7-7-7-7-7-6-6-6-6-|
D-7-7-7-7-7-7-7-7-7-7-7-7-|
A-5-5-5-5-5-5-5-5-5-5-5-5-|
D-------------------------|

Verse 2 Guitar 2

D---------------------------------0-|
A-----0--------0----------------0---|
G---7-------11---11-----11----6-----|
D-9------12----------12-----7-------| x4
A-----------------------------------|
D-----------------------------------|

Chorus 2 guitar 1

D-0-0-0-0-0-0-0-0-0-0-0-0-0-0-0-0-0-0-0-0-0-0-0-0-0-0-0-0-|
A-0-0-0-0-0-0-0-0-0-0-0-0-0-0-0-0-0-0-0-0-0-0-0-0-0-0-0-0-|
G-7-7-7-7-7-7-7-7-6-6-6-6-6-6-6-6-7-7-7-7-7-7-7-7-6-6-6-6-|
D-7-7-7-7-7-7-7-7-7-7-7-7-7-7-7-7-7-7-7-7-7-7-7-7-7-7-7-7-|
A-5-5-5-5-5-5-5-5-5-5-5-5-5-5-5-5-5-5-5-5-5-5-5-5-5-5-5-5-|
D---------------------------------------------------------|

D-0-0-0-0-0-0-0-0-0-0-0-0-0-0-0-0-0-0-0-0-0-0-0-0-|
A-0-0-0-0-0-0-0-0-0-0-0-0-0-0-0-0-0-0-0-0-0-0-0-0-|
G-7-7-7-7-7-7-7-7-6-6-6-6-6-6-6-6-7-7-7-7-7-7-7-7-|
D-7-7-7-7-7-7-7-7-7-7-7-7-7-7-7-7-7-7-7-7-7-7-7-7-|
A-5-5-5-5-5-5-5-5-5-5-5-5-5-5-5-5-5-5-5-5-5-5-5-5-|
D-------------------------------------------------|

Chorus 2 guitar 2

D---0----0-----0-----0-------0------0---0-------0-----0----0-----|
A-----0----0-----------0-------0----------0-------0----------0---|
G-7-----7----7----6-------7-------7---7------7------7----6-----7-|
D----------------------------------------------------------------|
A----------------------------------------------------------------|
D----------------------------------------------------------------|

D-------------------|
A-------------------|
G-9/11-11-11-11-9-9-|
D-------------------|
A-------------------|
D-------------------|

D---0------0-----0----0-----0-----0----0-----0-----0-|
A-----0------0----------0-----0----------0-----0-----|
G-7-----7------7---6------7-----7----7-----7-----7---|
D----------------------------------------------------|
A----------------------------------------------------|
D----------------------------------------------------|

outro both guitars

D-0-0--0-0--0-0--0-0-0-0--0-0-0-0-0-0-0-0-0-0-0-0-0-0-0-0-0-0-0-0-0-0-0-0-|
A-0-0--0-0--0-0--0-0-0-0--0-0-0-0-0-0-0-0-0-0-0-0-0-0-0-0-0-0-0-0-0-0-0-0-|
G-7-7--7-7--7-7--7-7-7-7--6-6-6-7-7-7-7-7-7-7-7-7-7-7-7-7-7-7-7-7-7-7-7-7-|
D-7-7--7-7--7-7--7-7-7-7--4-4-4-5-5-5-5-5-0-0-0-0-0-0-0-0-0-0-0-0-0-0-0-0-|
A-5-5--5-5--5-5--5-5-5-5--4-4-4-5-5-5-5-5-0-0-0-0-0-0-0-0-0-0-0-0-0-0-0-0-|
D-------------------------4-4-4-5-5-5-5-5-0-0-0-0-0-0-0-0-0-0-0-0-0-0-0-0-|

D-0-0-0-0-0-0-0-0-0--0--0--0--0--0--0--0--0-0-0-0-0-0-0-0-|
A-0-0-0-0-0-0-0-0-0--0--0--0--0--0--0--0--0-0-0-0-0-0-0-0-|
G-6-6-6-6-6-6-6-6-11-11-11-11-11-11-11-11-9-9-9-9-9-9-9-9-|
D-4-4-4-4-4-4-4-4-9--9--9--9--9--9--9---9-7-7-7-7-7-7-7-7-|
A-4-4-4-4-4-4-4-4-9--9--9--9--9--9--9---9-7-7-7-7-7-7-7-7-|
D-4-4-4-4-4-4-4-4-9--9--9--9--9--9--9---9-7-7-7-7-7-7-7-7-|

play outro 4 times

enjoy =)
Tap to rate this tab
# A B C D E F G H I J K L M N O P Q R S T U V W X Y Z