Song name
# A B C D E F G H I J K L M N O P Q R S T U V W X Y Z

Goodbye Tomorrow - A Vespertine Haunting tab

Help us improve GuitareTab! Take a short survey!
Tabbed by Chris Perez
Email:Worldthisofout@yahoo.com

Standard tuning

this tab is very basic. i didnt count how many times
i also dont know if the chorus chords are right. im sort of not
sure if this is standard or half step
its sounds pretty good though.
i strongly recomend seeing goodbye tomorrow live they hold the best show ive
been to award.

guitar 1
intro/verse
e------------------------|
B------6------10-----5/6-|
G------------------------|
D---3-------7------2-----|
A-5-------8------3-------|
E------------------------|

guitar 2
verse

e----------------------------------------|
B----------------------------------------|
G-7---7---7---7---5---5---5---5----------|
D---7---7---7---7---7---7---7------2---2-|
A--------------------------------3---3---|
E----------------------------------------|

chorus

e-------|
B-1-1-1-|
G-3-2-0-|
D-3-3-3-|
A-------|
E-------|

there are some parts that are scattered in there

right before the verses start there is this

e-------|
B-6-8---|
G-----7-|
D-------|
A-------|
E-------|

this is in the second chorus

e----------------------|
B-8--------------------|
G--------10--10-10-9-9-|
D---8/10---------------|
A----------------------|
E----------------------|

this is in the outro
e-----------------------|
B-10-10-10--------------|
G----------10-10--------|
D-----------------8-8-7-|
A-----------------------|
E-----------------------|

this is too i dont know how many times but its there
e-------------------------------------|
B-11-11-11-11-11-11-11-11-11-11-11-11-|
G-10-10-10-10-10-10-10-10-10-10-10-10-|
D-------------------------------------|
A-------------------------------------|
E-------------------------------------|


please feel free to correct
enjoy =)
Related for A Vespertine Haunting tab