Song name
# A B C D E F G H I J K L M N O P Q R S T U V W X Y Z

Goodnight Nurse - Death Goes To Disco tab

Band: Goodnight Nurse
Song: Death Goes To Disco
Album: Always And Never

I decided to tab this because there is not a single tab (that isn't power tab) on the 
for this song. So, I tabbed it in

less than an hour.
Enjoy!

I finally found how to update stuff! Anywho, play this in Drop C#

Intro 0:00-0:10
E|--------|
B|--------|
G|--------|
D|-7-7-7-7| Play this for 10 seconds.
A|-5-5-5-5|
D|--------|
pm . . . .

Main Riff 0:11-0:21
E|-----14p10-15p10-------15p10----|------14p10-15p10----------------------|
B|-----------------------------10-|---------------------------------------|
G|--------------------------------|---------------------------------------|
D|0-0---------------0-0-----------|-0-0---------------3p2p0-2-5p3p2p0-----|
A|0-0---------------0-0-----------|-0-0---------------3p2p0-2-5p3p2p0-----|
D|0-0---------------0-0-----------|-0-0---------------3p2p0-2-5p3p2p0-----|

E|-----14p10-15p10-------15p10----|------14-15~~|
B|-----------------------------10-|-------------|
G|--------------------------------|-------------|
D|0-0---------------0-0-----------|-0-0---------|
A|0-0---------------0-0-----------|-0-0---------|
D|0-0---------------0-0-----------|-0-0---------|

Verse 0:22-0:33
E|----------------------------------------|
B|----------------------------------------|
G|----------------------------------------|
D|-7-7--7-7--7-7--7-7---------------------|
A|-5-5--5-5--5-5--5-5--7-7--9-9--7-7--9-9-|
D|---------------------7-7--9-9--7-7--9-9-|

Intro 0:34-0:44
E|--------|
B|--------|
G|--------|
D|-7-7-7-7|
A|-5-5-5-5|
D|--------|
pm . . . .

Prechorus 0:44-0:46
E|-----------------|
B|-----------------|
G|-----------------|
D|-----------------|
A|-4-5-4-5-4-5-4-5-|
D|-----------------|

Chorus 0:47-0:55
E|-----14p10-15p10-------15p10----|------14p10-15p10----------------------|
B|-----------------------------10-|---------------------------------------|
G|--------------------------------|---------------------------------------|
D|0-0---------------0-0-----------|-0-0---------------3p2p0-2-5p3p2p0-----|
A|0-0---------------0-0-----------|-0-0---------------3p2p0-2-5p3p2p0-----|
D|0-0---------------0-0-----------|-0-0---------------3p2p0-2-5p3p2p0-----|

E|-----14p10-15p10-------15p10----|------14-15~~|
B|-----------------------------10-|-------------|
G|--------------------------------|-------------|
D|0-0---------------0-0-----------|-0-0---------|
A|0-0---------------0-0-----------|-0-0---------|
D|0-0---------------0-0-----------|-0-0---------|

Verse 0:56-1:17
E|----------------------------------------|
B|----------------------------------------|
G|----------------------------------------|
D|-7-7--7-7--7-7--7-7---------------------| x2
A|-5-5--5-5--5-5--5-5--7-7--9-9--7-7--9-9-|
D|---------------------7-7--9-9--7-7--9-9-|

Intro 1:18-1:29
E|--------|
B|--------|
G|--------|
D|-7-7-7-7|
A|-5-5-5-5|
D|--------|
pm . . . .

Prechorus 1:30-1:32
E|-----------------|
B|-----------------|
G|-----------------|
D|-----------------|
A|-4-5-4-5-4-5-4-5-|
D|-----------------|

Chorus 1:31-1:51
E|-----14p10-15p10-------15p10----|------14p10-15p10----------------------|
B|-----------------------------10-|---------------------------------------|
G|--------------------------------|---------------------------------------|
D|0-0---------------0-0-----------|-0-0---------------3p2p0-2-5p3p2p0-----|
A|0-0---------------0-0-----------|-0-0---------------3p2p0-2-5p3p2p0-----|
D|0-0---------------0-0-----------|-0-0---------------3p2p0-2-5p3p2p0-----|

E|-----14p10-15p10-------15p10----|------14-15~~|
B|-----------------------------10-|-------------|
G|--------------------------------|-------------|
D|0-0---------------0-0-----------|-0-0---------|
A|0-0---------------0-0-----------|-0-0---------|
D|0-0---------------0-0-----------|-0-0---------|

Interlude 1:52-2:13
E|------------|
B|------------|
G|------------|
D|-7--7--7--7-|
A|-5--5--5--5-|
D|------------|
pm .  .  .  .

Leave a 5 second gap here.

Chorus x4 2:18-3:01
E|-----14p10-15p10-------15p10----|------14p10-15p10----------------------|
B|-----------------------------10-|---------------------------------------|
G|--------------------------------|---------------------------------------|
D|0-0---------------0-0-----------|-0-0---------------3p2p0-2-5p3p2p0-----|
A|0-0---------------0-0-----------|-0-0---------------3p2p0-2-5p3p2p0-----|
D|0-0---------------0-0-----------|-0-0---------------3p2p0-2-5p3p2p0-----|

E|-----14p10-15p10-------15p10----|------14-15~~|
B|-----------------------------10-|-------------|
G|--------------------------------|-------------|
D|0-0---------------0-0-----------|-0-0---------|
A|0-0---------------0-0-----------|-0-0---------|
D|0-0---------------0-0-----------|-0-0---------|

Outro 3:01
E|------------------------|
B|------------------------|
G|------------------------|
D|------------------------|
A|-4-5-4-5-4-5-4-5-4-5-4-5|
D|------------------------|

Let the guitar ring completely & then you can play the piano part.
E|-13-12---------13-12---------13-12---------15-13-12-11-|
B|-------10-11---------10-13---------10-11------------11-|
G|-------------------------------------------------------|
D|-------------------------------------------------------|
A|-------------------------------------------------------|
D|-------------------------------------------------------|

E|-13-12---------13-12---------13-12---------15-13-12~~~~|
B|-------10-11---------10-13---------10-11---------------|
G|-------------------------------------------------------|
D|-------------------------------------------------------|
A|-------------------------------------------------------|
D|-------------------------------------------------------|

Hope you enjoy playing this song. It's a great song, probably their best.
Tap to rate this tab
# A B C D E F G H I J K L M N O P Q R S T U V W X Y Z