Guitaretab - guitar tabs
Song name
# A B C D E F G H I J K L M N O P Q R S T U V W X Y Z

Goodnight Nurse - The Massacre Begins Tonight tab

-------------------------------------------------------------------------------
		The Massacre Begins Tonight Ė Goodnight Nurse
-------------------------------------------------------------------------------
Tabbed by: Gabriel Lloyd-Towner
Email: Jigglesthedonkey@hotmail.com

My first tab, itís right I think, some small rhythm patterns were hard to pick up
cause of the heavy distortion, but yeah, im pretty sure itís right.

Tuning: Standard

Intro:
Guitar 1
e|------------------------------------|
B|------------------------------------|
G|--66--6-----------------------------|        x3
D|--66--6----66--6----77--7----22--2--|
A|--44--4----44--6----77--7----22--2--|
E|-----------44--4----55--5----00--0--|

Guitar 2
e|------------------------------------------------|
B|------------------------------------------------|
G|------------------------------------------------|       x3
D|--66----------66----------66---------------466--|
A|-------777--------776---------777----77---------|
E|------------------------------------------------|

Verse:
e|-----------------------------------------------------------------------------|
B|-----------------------------------------------------------------------------|
G|--66666666-------------------------------------------------------------------|
D|--66666666----66666666----77777777----22222222-------------------------------|
A|--44444444----66666666----77777777----22222222-------------------------------|
E|--------------44444444----55555555----00000000-------------------------------|

e|-----------------------------------------------------------------------------|
B|-----------------------------------------------------------------------------|
G|--66666666-------------------------------------------------------------------|
D|--66666666----66666666----77777777----2222--4444-----------------------------|
A|--44444444----66666666----77777777----2222--4444-----------------------------|
E|--------------44444444----55555555----0000--2222-----------------------------|

After the verse, repeat the intro once. And continue

e|-----------------------------------------------------------------------------|
B|-----------------------------------------------------------------------------|
G|--66666666-------------------------------------------------------------------|
D|--66666666----66666666----77777777----22222222-------------------------------|
A|--44444444----66666666----77777777----22222222-------------------------------|
E|--------------44444444----55555555----00000000-------------------------------|

e|-----------------------------------------------------------------------------------|
B|-----------------------------------------------------------------------------------|
G|--66666666-------------------------------------------------------------------------|
D|--66666666----66666666----77777777----2222--4444----6----4-66----------------------|
A|--44444444----66666666----77777777----2222--4444----6------------------------------|
E|--------------44444444----55555555----0000--2222----4------------------------------|

Chorus:
e|-----------------------------------------------------------------------------------|
B|-----------------------------------------------------------------------------------|
G|--6666666666666666---------------------------------------44444444--55555555--------|
D|--6666666666666666---7777777777777777---22--22--22--22---44444444--55555555--------|
A|--4444444444444444---7777777777777777---22--22--22--22---22222222--33333333--------|
E|---------------------5555555555555555---00--00--00--00-----------------------------|

e|-----------------------------------------------------------------------------------|
B|-----------------------------------------------------------------------------------|
G|--6666666666666666---------------------------------------4444444444444444----------|
D|--6666666666666666---7777777777777777---22--22--22--22---4444444444444444----------|
A|--4444444444444444---7777777777777777---22--22--22--22---2222222222222222----------|
E|---------------------5555555555555555---00--00--00--00-----------------------------|

Verse 2:
e|-----------------------------------------------------------------------------|
B|-----------------------------------------------------------------------------|
G|--6--------------------------------------------------------------------------|
D|--6----6----77777777----22222222---------------------------------------------|
A|--4----6----77777777----22222222---------------------------------------------|
E|-------4----55555555----00000000---------------------------------------------|
[ Tab from: http://www.guitaretab.com/g/goodnight-nurse/115874.html ]
e|-----------------------------------------------------------------------------------|
B|-----------------------------------------------------------------------------------|
G|--66666666-------------------------------------------------------------------------|
D|--66666666----66666666----77777777----2222--4444----6----4-66----------------------|
A|--44444444----66666666----77777777----2222--4444----6------------------------------|
E|--------------44444444----55555555----0000--2222----4------------------------------|

Chorus:
e|-----------------------------------------------------------------------------------|
B|-----------------------------------------------------------------------------------|
G|--6666666666666666---------------------------------------44444444--55555555--------|
D|--6666666666666666---7777777777777777---22--22--22--22---44444444--55555555--------|
A|--4444444444444444---7777777777777777---22--22--22--22---22222222--33333333--------|
E|---------------------5555555555555555---00--00--00--00-----------------------------|

e|-----------------------------------------------------------------------------------|
B|-----------------------------------------------------------------------------------|
G|--6666666666666666---------------------------------------44444444------------------|
D|--6666666666666666---7777777777777777---22--22--22--22---44444444--22222222--------|
A|--4444444444444444---7777777777777777---22--22--22--22---22222222--22222222--------|
E|---------------------5555555555555555---00--00--00--00--------------00000000-------|

Bridge:
e|----------------------------------------|
B|----------------------------------------|
G|----------------------------------------|        (Palm Muted)
D|--2222222222222222----------------------|
A|--2222222222222222----------------------|
E|--0000000000000000----------------------|

e|-----------------------------------------------------------------------------------|
B|-----------------------------------------------------------------------------------|
G|-------------------6666666666666666-----------------------------44444444-----------|
D|-2222222222222222--6666666666666666--7777777777777777--66666666-44444444-----------|
A|-2222222222222222--4444444444444444--7777777777777777--66666666-22222222-----------|
E|-0000000000000000--------------------5555555555555555--44444444--------------------|

e|-----------------------------------------------------------------------------------|
B|-----------------------------------------------------------------------------------|
G|------------------6666666666666666-------------------------------------------------|
D|-22--22--22--22---6666666666666666--7777777777777777--6666666666666666-------------|
A|-22--22--22--22---4444444444444444--7777777777777777--6666666666666666-------------|
E|-00--00--00--00---------------------5555555555555555--4444444444444444-------------|

e|----------------------------------------|
B|----------------------------------------|
G|----------------------------------------|        (Palm Muted)
D|--6666666666666666----------------------|
A|--6666666666666666----------------------|
E|--4444444444444444----------------------|

Chorus:
e|-----------------------------------------------------------------------------------|
B|-----------------------------------------------------------------------------------|
G|--6666666666666666---------------------------------------44444444--55555555--------|
D|--6666666666666666---7777777777777777---22--22--22--22---44444444--55555555--------|
A|--4444444444444444---7777777777777777---22--22--22--22---22222222--33333333--------|
E|---------------------5555555555555555---00--00--00--00-----------------------------|

e|-----------------------------------------------------------------------------------|
B|-----------------------------------------------------------------------------------|
G|--6666666666666666---------------------------------------44444444------------------|
D|--6666666666666666---7777777777777777---22--22--22--22---44444444--22222222--------|
A|--4444444444444444---7777777777777777---22--22--22--22---22222222--22222222--------|
E|---------------------5555555555555555---00--00--00--00--------------00000000-------|

Outro:
Guitar 1
e|------------------------------------|
B|------------------------------------|
G|--66--6-----------------------------|        x2
D|--66--6----66--6----77--7----22--2--|
A|--44--4----44--6----77--7----22--2--|
E|-----------44--4----55--5----00--0--|

Guitar 2
e|------------------------------------------------|
B|------------------------------------------------|
G|------------------------------------------------|       x2
D|--66----------66----------66---------------466--|
A|-------777--------776---------777----77---------|
E|------------------------------------------------|
Related for The Massacre Begins Tonight tab