Guitaretab - guitar tabs
Song name
# A B C D E F G H I J K L M N O P Q R S T U V W X Y Z

Goodnight Nurse - A Shadow And A Prayer tab

A Shadow and a Prayer by Goodnight Nurse
This song was pretty hard to tab out but stick with me here.
Email: shorty_rox_06@hotmail.com
Tuning: E A D G B E 


Intro:
E|---------------0-0---------0----------------0-0---------0-|
B|---------4-4-4---------4-4------------4-4-4---------4-4---|
G|----4--4-----------4-4-----------4--4-----------4-4-------|
D|----------------------------------------------------------|
A|--4--4-------------------------4--4-----------------------|
E|----------------------------------------------------------|


E|---------------0-0---------0----------0-0------|
B|---------4-4-4---------4-4------------------4--|
G|----4--4-----------4-4-----------4--4-----4----|
D|-----------------------------------------------|
A|--0--0-------------------------0--0------------|
E|-----------------------------------------------|

E|-----------------------|
B|-----------------------|
G|----------------6------|
D|--4------6------6-x32--|
A|--4-x16--6-x16--4------|
E|--2------4-------------|
 
Iím not sure what the guitar plays in there but I think its something like this,

E|----------------------------------------------------------------|
A|----------------------------------------------------------------|
D|-------------6-6-4-4-x30-6-6-4-4-------------4-6-x8-4-6-x8------|
G|-4-x16-6-x16---------------------4-x16ó6-x16---------------6-x8-|
B|----------------------------------------------------------------|
E|----------------------------------------------------------------|

Verse:
E|----------------------------------------------------------------|
B|----------------------------------------------------------------|
G|--------------------------------------------6-6-6-6--6-6-6-6--6-|
D|--2-2-2-2--2-2-2-2--2--4-4-4-4--4-4-4-4--4--6-6-6-6--6-6-6-6--6-|
A|--2-2-2-2--2-2-2-2--2--4-4-4-4--4-4-4-4--4--4-4-4-4--4-4-4-4--4-|
E|--0-0-0-0--0-0-0-0--0--2-2-2-2--2-2-2-2--2----------------------|
Pm  . . . .  . . . .  .  . . . .  . . . .  .  . . . .  . . . . . . 
Repeat that riff 2 times then repeat it once without palm mute
[ Tab from: http://www.guitaretab.com/g/goodnight-nurse/80335.html ]
Chorus:
E|-----------------------------------------------------------------------------------|
B|-----------------------------------------------------------------------------------|
G|-2-2-2-2-2-2-2-2-2-2--4-4-4-4-4-4-4-4-4-4--6-6-6-6-6-6-6-6-6-6-6-6-6-6-6-6-6-6-6-6-|
D|-2-2-2-2-2-2-2-2-2-2--4-4-4-4-4-4-4-4-4-4--6-6-6-6-6-6-6-6-6-6-6-6-6-6-6-6-6-6-6-6-|
A|-0-0-0-0-0-0-0-0-0-0--2-2-2-2-2-2-2-2-2-2--4-4-4-4-4-4-4-4-4-4-4-4-4-4-4-4-4-4-4-4-|
E|-----------------------------------------------------------------------------------|

Verse

Chorus x2

Bridge Part 1:
E|---------------0-0---------0----------------0-0---------0-|
B|---------4-4-4---------4-4------------4-4-4---------4-4---|
G|----4--4-----------4-4-----------4--4-----------4-4-------|
D|----------------------------------------------------------|
A|--4--4-------------------------4--4-----------------------|
E|----------------------------------------------------------|

E|---------------0-0---------0----------------0-0---------0-|
B|---------4-4-4---------4-4------------4-4-4---------4-4---|
G|----4--4-----------4-4-----------4--4-----------4-4-------|
D|----------------------------------------------------------|
A|--0--0-------------------------0--0-----------------------|
E|----------------------------------------------------------|

Bridge part 2:

E|-----------------------|
B|-----------------------|
G|----------------6------|
D|--4------6------6-x32--|
A|--4-x16--6-x16--4------|
E|--2------4-------------|

Or

E|----------------------------------------------------------------|
A|----------------------------------------------------------------|
D|-------------6-6-4-4-x30-6-6-4-4-------------4-6-x8-4-6-x8------|
G|-4-x16-6-x16---------------------4-x16ó6-x16---------------6-x8-|
B|----------------------------------------------------------------|
E|----------------------------------------------------------------|

Chorus x4

Outro:
E|---------------0-0---------0----------------0-0---------0-|
B|---------4-4-4---------4-4------------4-4-4---------4-4---|
G|----4--4-----------4-4-----------4--4-----------4-4-------|
D|----------------------------------------------------------|
A|--4--4-------------------------4--4-----------------------|
E|----------------------------------------------------------|


E|---------------0-0---------0----------0-0------|
B|---------4-4-4---------4-4------------------4--|
G|----4--4-----------4-4-----------4--4-----4----|
D|-----------------------------------------------|
A|--0--0-------------------------0--0------------|
E|-----------------------------------------------|

E|---------------0-0---------0----------------0-0--|
B|---------4-4-4---------4-4------------4-4-4------|
G|----4--4-----------4-4-----------4--4------------|
D|-------------------------------------------------|
A|--4--4-------------------------4--4--------------|
E|-------------------------------------------------|

And thatís it. Enjoi

THE END
Have fun playing it
tle rule
Related for A Shadow And A Prayer tab