Song name
# A B C D E F G H I J K L M N O P Q R S T U V W X Y Z

Goon Moon - Pin Eyed Boy tab

Pin Eyed Boy - Goon Moon
Rhythm Guitar
Standard Tuning

Intro/Bridge
e|-----------------|-----------------|
B|-----------------|-----------------|
G|-----------------|-8---------------|
D|-8---------------|-8---------------|
A|-8---------------|-6---------------|
E|-6---------------|-----------------|
   *Hold note        *Hold note
Verse
e|-----------------|-----------------|
B|-----------------|-----------------|
G|-----------------|-----------------|
D|-8-------6-------|-5-------4-------|
A|-8-------6-------|-5-------4-------|
E|-6-------4-------|-3-------2-------|

e|-----------------|-----------------|
B|-----------------|-----------------|
G|-10--10--10--8-10|-13--------------|
D|-10--10--10--8-10|-13--------------|
A|-8---8---8---6-8-|-11--------------|
E|-----------------|-----------------|
                     *Hold note
Chorus
e|-----------------|-----------------|
B|-----------------|-----------------|
G|---------6-6-6-6-|-----------------|
D|-4-4-4-4-6-6-6-6-|-6-6-6-6-6-6-6-6-|
A|-4-4-4-4-4-4-4-4-|-6-6-6-6-6-6-6-6-|
E|-2-2-2-2---------|-4-4-4-4-4-4-4-4-|
x3 (or x5 for final chorus)

e|-----------------|-----------------|
B|-----------------|-----------------|
G|---------6-6-6-6-|-----------------|
D|-4-4-4-4-6-6-6-6-|-Play verse------|
A|-4-4-4-4-4-4-4-4-|-----------------|
E|-2-2-2-2---------|-----------------|
Tap to rate this tab
# A B C D E F G H I J K L M N O P Q R S T U V W X Y Z