Song name
# A B C D E F G H I J K L M N O P Q R S T U V W X Y Z

Goonie Squad - Unspoken Feelings tab

Help us improve GuitareTab! Take a short survey!
By:Anthonette :]

THIS IS DEDICATED TO MIKKO F. <333 (my twin)

-------3---3----------------------------------3--3--3----5------------------|
----3----------3-------3-----------------3----------------------------------|
-------------------0--------------------------------------------------------|
----------------------------------------------------------------------------|
-------------------------------------2--------------------------------------|
--3-------------------------------------------------------------------------|

-----------3---3--------------------------------3--3-----5----3----|
--------3--------3-------3------------------3----------------------|
----------------------0------------------0-------------------------|
-3-----------------------------------------------------------------|
-------------------------------------------------------------------|
Related for Unspoken Feelings tab