Song name
# A B C D E F G H I J K L M N O P Q R S T U V W X Y Z

Goot - Welcome To The World tab

Intro: pick each chord twice. 

  E|--3---3---3---3-------|
  B|--3---3---3---4-------|
  G|--x---x---x---x-------|
  D|--x---x---x---x-------|
  A|--x---2---3---3-------|
  E|--3-------------------|  x2


Verse and Chorus:

  E|--3---3---3---3-------|
  B|--3---3---3---3-------|
  G|--x---x---x---x-------|
  D|--x---x---x---x-------|
  A|--x---2---3---3-------|
  E|--3-------------------|


okay and the lyrics, incase you'd like to have them:

stay quiet don't cry now you'll be safe at home
your mother she's gonna make sure you never feel alone

the world out there's crazy you don't know that yet
but you'll find out soon enough and you'll grow up so strong

you're tired it's time for you to end your day
so you'll sleep now and you'll dream of a peaceful melody

the world out there's crazy you don't know that now 
but you'll find out some day and you'll grow up so strong

sleep little baby now 
sleep rest your head lay it down

welcome to the world welcome home now
here's your lullaby so you can rest now
welcome to the world i hope you like it
i hope you find your place and you fit right in

sleep little baby now
(welcome to the world)
sleep rest your head lay it down
(welcome to the world)




Note: okay so the chord:

  E|---3---|
  B|---4---|
  G|---x---|
  D|---x---|
  A|---3---|
  E|-------|  

Is also used as the last chord for 
every chorus.. 
and also the last chord of the song..
hold the note.


and that is Basically it. 
Enjoy :]

Tap to rate this tab
# A B C D E F G H I J K L M N O P Q R S T U V W X Y Z