Song name
# A B C D E F G H I J K L M N O P Q R S T U V W X Y Z

Goot - I Love Your Existence tab

The other tabs for this song didn't sound quite right to me, so I made some
better ones. Hope they sound right now. ENJOY!
-$purz


Standard Tuning E A D G B E
. = palm mute


Intro
e|--------------------------------------------|
b|--6--6--6--6--------------------------------|
g|---5--5--5--5-------------------------------|
d|--------------------------------------------|
a|----5--3------------------------------------|
e|-6--------6---------------------------------|

Verse 1
e|--------------------------------------------|
b|--------------------------------------------|
g|--------------------------------------------|
d|-77777-88888-1010101010-88888---------------|
a|-xxxxx-xxxxx-x-x-x-x-x--xxxxx---------------|
e|-55555-66666-8-8-8-8-8--66666---------------| (X3)

e|--------------------------------------------|
b|--------------------------------------------|
g|--------------------------------------------|
d|-77777-88888-1010101010-8-------------------|
a|-xxxxx-xxxxx-x-x-x-x-x--x-------------------|
e|-55555-66666-8-8-8-8-8--6-------------------|

Chorus
e|--------------------------------------------|
b|-66666-66666--------------------------------|
g|-55555-55555--------------------------------|
d|-00000-00000-33333-33333--------------------|
a|-55555-55555-xxxxx-xxxxx--------------------|
e|-xxxxx-66666-11111-00000--------------------|
				
e|--------------------------------------------|
b|-66666-66666--------------------------------|
g|-55555-55555--------------------------------|
d|-00000-00000-33333-3------------------------|
a|-55555-55555-xxxxx-x------------------------|
e|-xxxxx-66666-11111-0------------------------|

e|--------------------------------------------|
b|--------------------------------------------|
g|--------------------------------------------|
d|-3-3-3--------------------------------------|
a|-x-x-x--------------------------------------|
e|-1-1-0--------------------------------------|
___.

e|--------------------------------------------|
b|-66666-66666--------------------------------|
g|-55555-55555--------------------------------|
d|-00000-00000-33333-33333--------------------|
a|-55555-55555-xxxxx-xxxxx--------------------|
e|-xxxxx-66666-11111-33333--------------------|

e|--------------------------------------------|
b|-66666-66666--------------------------------|
g|-55555-55555--------------------------------|
d|-00000-00000-33333-3-3-3--------------------|
a|-55555-55555-xxxxx-x-x-x--------------------|
e|-xxxxx-66666-11111-0-0-0--------------------|

e|--------------------------------------------|
b|--------------------------------------------|
g|--------------------------------------------|
d|-33-3-3-------------------------------------|
a|-xx-x-x-------------------------------------|
e|-11-1-0-------------------------------------|
___..


Verse 2
e|--------------------------------------------|
b|--------------------------------------------|
g|--------------------------------------------|
d|-77777-88888-1010101010-88888---------------|
a|-xxxxx-xxxxx-x-x-x-x-x--xxxxx---------------|
e|-55555-66666-8-8-8-8-8--66666---------------| (X3)

e|--------------------------------------------|
b|--------------------------------------------|
g|--------------------------------------------|
d|-77777-88888-1010101010-8-------------------|
a|-xxxxx-xxxxx-x-x-x-x-x--x-------------------|
e|-55555-66666-8-8-8-8-8--6-------------------|

Chorus
e|--------------------------------------------|
b|-66666-66666--------------------------------|
g|-55555-55555--------------------------------|
d|-00000-00000-33333-33333--------------------|
a|-55555-55555-xxxxx-xxxxx--------------------|
e|-xxxxx-66666-11111-00000--------------------|
				
e|--------------------------------------------|
b|-66666-66666--------------------------------|
g|-55555-55555--------------------------------|
d|-00000-00000-33333-3------------------------|
a|-55555-55555-xxxxx-x------------------------|
e|-xxxxx-66666-11111-0------------------------|

e|--------------------------------------------|
b|--------------------------------------------|
g|--------------------------------------------|
d|-3-3-3--------------------------------------|
a|-x-x-x--------------------------------------|
e|-1-1-0--------------------------------------|
___.

e|--------------------------------------------|
b|-66666-66666--------------------------------|
g|-55555-55555--------------------------------|
d|-00000-00000-33333-33333--------------------|
a|-55555-55555-xxxxx-xxxxx--------------------|
e|-xxxxx-66666-11111-33333--------------------|

e|--------------------------------------------|
b|-66666-66666--------------------------------|
g|-55555-55555--------------------------------|
d|-00000-00000-33333-3-3-3--------------------|
a|-55555-55555-xxxxx-x-x-x--------------------|
e|-xxxxx-66666-11111-3-3-3--------------------|

e|--------------------------------------------|
b|--------------------------------------------|
g|--------------------------------------------|
d|-3-3-3--------------------------------------|
a|-x-x-x--------------------------------------|
e|-1-1-0--------------------------------------|
___.

e|--------------------------------------------|
b|-66666-66666--------------------------------|
g|-55555-55555--------------------------------|
d|-00000-00000-33333-33333--------------------|
a|-55555-55555-xxxxx-xxxxx--------------------|
e|-xxxxx-66666-11111-33333--------------------| (X7)

e|--------------------------------------------|
b|-66666-66666--------------------------------|
g|-55555-55555--------------------------------|
d|-00000-00000-33333-3------------------------|
a|-55555-55555-xxxxx-x------------------------|
e|-xxxxx-66666-11111-3------------------------|
Tap to rate this tab
 
# A B C D E F G H I J K L M N O P Q R S T U V W X Y Z