Song name
# A B C D E F G H I J K L M N O P Q R S T U V W X Y Z

Gordon Lightfoot - Rainy Day People chords

                    >>>>>>>>>>>>>>>>>>>>>>>>>>>>>>>>>>>>
                    Rainy Day People by Gordon Lightfoot
                    >>>>>>>>>>>>>>>>>>>>>>>>>>>>>>>>>>>>

Solo Section (Capo 4)Version 2

Tuning: Standard

e|---------------------------------------------------------|
B|---0--1----0---------------------------------------------|
G|----------------2--4---2-0---------------22--------------|
D|----------------------------4----22----------------------|
A|---------------------------------------------------------|
E|---------------------------------------------------------|

e|----3---33--2--------------------------------------------|
B|--------------33---3--0---3-----5---3---1---1----0-----3-|
G|---------------------------------------------------------|
D|---------------------------------------------------------|
A|---------------------------------------------------------|
E|---------------------------------------------------------|
Tap to rate this tab
# A B C D E F G H I J K L M N O P Q R S T U V W X Y Z