Song name
# A B C D E F G H I J K L M N O P Q R S T U V W X Y Z

Gordon Lightfoot - Wreck Of The Edmund Fitzgerald tab

          intro/solo (whats played in beetween some verses)

                  (ordered from best to worst in my opinion)

e-8-10-8-6-6-3-5-6-5-3-8-------|
b------------------------------|
g------------------------------|
d------------------------------|      or...
a------------------------------|
e------------------------------|

e-----------------------|
b-1-3-1---------------1-|
g-------3-3-0-2-3-2-0---|
d-----------------------|      or...
a-----------------------|
e-----------------------|

e-1-3-1---------------1-|
b-------4-4-1-3-4-3-1---|
g-----------------------|
d-----------------------|
a-----------------------|
e-----------------------|

 so pretty much just c-d-c-a#-a#-g,a-a#-a-g-c mainly. enjoy.
Tap to rate this tab
 
# A B C D E F G H I J K L M N O P Q R S T U V W X Y Z