Song name
# A B C D E F G H I J K L M N O P Q R S T U V W X Y Z

Gordon Lightfoot - Carefree Highway tab

-----------------------------------------------------------------
Carefree Highway (solos) - Gordon Lightfoot
-----------------------------------------------------------------
Tabbed by: Dan Traudt
Email: traudtda [at] gmail [dot] com

Tuning: Standard EADGBe - Capo on II (2nd fret)

| /  slide up
| \  slide down
| h  hammer-on
| p  pull-off
| ~  vibrato
| +  harmonic
| x  Mute note

First Solo

e|----------------5---5h7p5--------------------------------------|
B|----3----5/7-------------------7\5----3------------------------|
G|---------------------------------------------2/4---------------|
D|---------------------------------------------------------------|
A|---------------------------------------------------------------|
E|---------------------------------------------------------------|

e|-------------------------------5-----5h7p5---------------------|
B|---3----3----------3----5/7-------------------7p5--------------|
G|-------------2h4-----------------------------------------------|
D|---------------------------------------------------------------|
A|---------------------------------------------------------------|
E|---------------------------------------------------------------|

e|---10----10p7--------------------------------------------------|
B|----------------10---7---6p5-----------------------------------|
G|--------------------------------7--------------7---------------|
D|----------------------------------------7h9--------------------|
A|------------------------------------7--------------------------|
E|---------------------------------------------------------------|

e|---------------------------------------------------------------|
B|---------10---10h12p10---------10------------------------------|
G|--9/11-------------------12------------------------------------|
D|---------------------------------------------------------------|
A|---------------------------------------------------------------|
E|---------------------------------------------------------------|

Second Solo: Same as first


Third Solo / Outro

e|------------------5---5h7--5-----------------------------------|
B|---3--3----5/7-------------------7\5----3----------------------|
G|---------------------------------------------2h4---------------|
D|---------------------------------------------------------------|
A|---------------------------------------------------------------|
E|---------------------------------------------------------------|

e|-------------------------------5---5--5--7--5------------------|
B|---3----3----------3----5/7------------------------------------|
G|-------------2h4-----------------------------------------------|
D|---------------------------------------------------------------|
A|---------------------------------------------------------------|
E|---------------------------------------------------------------|

e|---10--10--10--7-----------------------------------------------|
B|-------------------10---7---6p5--------------------------------|
G|--------------------------------7--------------7---------------|
D|----------------------------------------7h9--------------------|
A|------------------------------------7--------------------------|
E|---------------------------------------------------------------|

e|---------------------------------------------------------------|
B|---------10---10h12--10---------10-----------------------------|
G|--9/11-------------------12------------------------------------|
D|---------------------------------------------------------------|
A|---------------------------------------------------------------|
E|---------------------------------------------------------------|


Enjoy!
Tap to rate this tab
# A B C D E F G H I J K L M N O P Q R S T U V W X Y Z