Song name
# A B C D E F G H I J K L M N O P Q R S T U V W X Y Z

Gore And Carnage - Chabelita La Nia Pornogore tab

E|---------------------------------------------------------------------------------|
B|---------------------------------------------------------------------------------|
G|---------------------------------------------------------------------------------|
D|--------------3--------------------3--------------3--------------------------3---|
A|--2--2--2--2--1--2--2--2--2--2--2--1--2--2--2--2--1--2--2--2--2--2--2--2--2--1---|
E|--0--0--0--0-----0--0--0--0--0--0-----0--0--0--0-----0--0--0--0--0--0--0--0------|



E|-----------------------------------------------------------------|
B|-----------------------------------------------------------------|
G|-----------------------------------------------------------------|
D|--------------------3--------------3--------------------------3--|
A|--2--2--2--2--2--2--1--2--2--2--2--1--2--2--2--2--2--2--2--2--1--|
E|--0--0--0--0--0--0-----0--0--0--0-----0--0--0--0--0--0--0--0-----|



E|-----------------------------------------------------------------|
B|-----------------------------------------------------------------|
G|-----------------------------------------------------------------|
D|--------------------3--------------3--------------------------3--|
A|--2--2--2--2--2--2--1--2--2--2--2--1--2--2--2--2--2--2--2--2--1--|
E|--0--0--0--0--0--0-----0--0--0--0-----0--0--0--0--0--0--0--0-----|



E|--------------------------------------|
B|--------------------------------------|
G|--------------------------------------|
D|--------------------3--------------3--|
A|--2--2--2--2--2--2--1--2--2--2--2--1--|
E|--0--0--0--0--0--0-----0--0--0--0-----|



E|--------------|
B|--------------|
G|--------------|
D|--------------|
A|--2--3--2--5--|
E|--0--1--0--3--|(X8)


E|--------------------------------------------------------------------------------|
B|--------------------------------------------------------------------------------|
G|--------------------------------------------------------------------------------|
D|--------------3--------------------3--------------3--------------------------3--|
A|--2--2--2--2--1--2--2--2--2--2--2--1--2--2--2--2--1--2--2--2--2--2--2--2--2--1--|
E|--0--0--0--0-----0--0--0--0--0--0-----0--0--0--0-----0--0--0--0--0--0--0--0-----|



E|-----------------------------------------------------------------|
B|-----------------------------------------------------------------|
G|-----------------------------------------------------------------|
D|--------------------3--------------3--------------------------3--|
A|--2--2--2--2--2--2--1--2--2--2--2--1--2--2--2--2--2--2--2--2--1--|
E|--0--0--0--0--0--0-----0--0--0--0-----0--0--0--0--0--0--0--0-----|



E|-----------------------------------------------------------------|
B|-----------------------------------------------------------------|
G|-----------------------------------------------------------------|
D|--------------------3--------------3--------------------------3--|
A|--2--2--2--2--2--2--1--2--2--2--2--1--2--2--2--2--2--2--2--2--1--|
E|--0--0--0--0--0--0-----0--0--0--0-----0--0--0--0--0--0--0--0-----|



E|--------------------------------------|
B|--------------------------------------|
G|--------------------------------------|
D|--------------------3--------------3--|
A|--2--2--2--2--2--2--1--2--2--2--2--1--|
E|--0--0--0--0--0--0-----0--0--0--0-----|



E|--------------|
B|--------------|
G|--------------|
D|--------------|
A|--2--3--2--5--|
E|--0--1--0--3--|(X8)


E|--------------------|
B|--------------------|
G|--------------------|
D|--4--4--------------|
A|--2--2--------------|
E|--------3--2--3--2--|(X4)


E|--------------------------|
B|--------------------------|
G|--------------------------|
D|--4--4--------------------|
A|--2--2--------------------|
E|--------3--2--3--2--3--2--|(X8)


E|--------------------|
B|--------------------|
G|--------------------|
D|--4--4--------------|
A|--2--2--------------|
E|--------3--2--3--2--|(X8)


E|---------------------------------------------------|
B|---------------------------------------------------|
G|---------------------------------------------------|
D|--4-----------5------------------------------------|
A|--2--2--2--2-----2--2--2---------------------------|
E|--------------------------3/2--3/2--3/2--3/2-------|(X9)


E|---------------------------------------------------|
B|---------------------------------------------------|
G|---------------------------------------------------|
D|--7-----------8------------------------------------|
A|--5--5--5--5-----5--5--5---------------------------|
E|--------------------------6/5--6/5--6/5--6/5-------|(X4)


E|---------------------------------------------------|
B|---------------------------------------------------|
G|---------------------------------------------------|
D|--4-----------5------------------------------------|
A|--2--2--2--2-----2--2--2---------------------------|
E|--------------------------3/2--3/2--3/2--3/2-------|(X4)


E|-----------------------------------------------------------------------|
B|-----------------------------------------------------------------------|
G|-----------------------------------------------------------------------|
D|-----------------------------------------------------------------------|
A|--2--2--3--2--2--5--2--2--3--2--2--5--2--2--3--2--2--5--2--2--2--2--2--|
E|--0--0--1--0--0--3--0--0--1--0--0--3--0--0--1--0--0--3--0--0--0--0--0--|


E|------------------------------------------------------------------------|
B|------------------------------------------------------------------------|
G|------------------------------------------------------------------------|
D|------------------------------------------------------------------------|
A|--2--2--3--2--2--5--2--2--3--2--2--5--2--2--3--2--2--5--2--2--3--2------|
E|--0--0--1--0--0--3--0--0--1--0--0--3--0--0--1--0--0--3--0--0--1--0------|(X2)


E|-------------------|
B|-------------------|
G|-------------------|
D|-------------------|
A|--2--3--2--5-------|
E|--0--1--0--3-(X100-|


E|-------------------------------------------------------|
B|-------------------------------------------------------|
G|-------------------------------------------------------|
D|--------------3--------------------3--------------3----|
A|--2--2--2--2--1--2--2--2--2--2--2--1--2--2--2--2--1--2-|
E|--0--0--0--0-----0--0--0--0--0--0-----0--0--0--0-----0-|

E|----------------|
B|----------------|
G|----------------|
D|--------------3-|
A|--2--2--2--2--1-|
E|--0--0--0--0----|

E|---
B|---
G|---
D|--3
A|--1
E|---
Tap to rate this tab
 
# A B C D E F G H I J K L M N O P Q R S T U V W X Y Z