Song name
# A B C D E F G H I J K L M N O P Q R S T U V W X Y Z

Gore And Carnage - Jesus Y Sus Secuaces tab

E|-0-0--0-0--0-0-|
B|-2-2--2-2--2-2-|
G|---------------|
D|---------------|
A|---------------|
E|---------------|(X3)

E|-0-0--0-0--0-0--0-2-4-------|
B|-2-2--2-2--2-2--------5-3-2-|
G|----------------------------|
D|----------------------------|
A|----------------------------|
E|----------------------------|(X5)

E|-2---2---2---2---1-0-0-|
B|---1---1---1---1-3-2-2-|
G|-----------------------|
D|-----------------------|
A|-----------------------|
E|-----------------------|(X4)

E|-0-0--0-0--0-0--0-2-4-------|
B|-2-2--2-2--2-2--2-----5-3-2-|
G|----------------------------|
D|----------------------------|
A|----------------------------|
E|----------------------------|(X4)

E|-2---2---2---2---1-0-0-|
B|---1---1---1---1-3-2-2-|
G|-----------------------|
D|-----------------------|
A|-----------------------|
E|-----------------------|(X4)

E|-3-1--1-0-|
B|-5-3--3-2-|
G|----------|
D|----------|
A|----------|
E|----------|(X10)

E|-0-1-1-0-1-1-0-3-1-|
B|-2-3-3-2-3-3-2-5-3-|
G|-------------------|
D|-------------------|
A|-------------------|
E|-------------------|(X16)

E|-4-3---1-0---0-1---|
B|-------------------|
G|-7-6---3-2---2-3---|
D|-------------------|
A|-------------------|
E|-------------------|(X5)
Tap to rate this tab
# A B C D E F G H I J K L M N O P Q R S T U V W X Y Z