Song name
# A B C D E F G H I J K L M N O P Q R S T U V W X Y Z

Gorebastard - Speeding Rampage tab

-----------------------------------------|
-----------------------------------------|
-------------------6----8---9------------|
----7---8---9--7----7----7---------------|
--7---7---7------------------------------|
-----------------------------------------|

-----------------------------------------|
-----------------------------------------|
-----------------------------------------| x3
------7----------------------------------|
-8-9----9-8------------------------------|
-----------------------------------------|

-----------------------------------------|
-----------------------------------------|
-----------------------------------------|
------7----------7-8-10------------------|
-8-9----9-8--8-9-------------------------|
-----------------------------------------|

-----------------------------------------|
-----------------------------------------|
-----------------------------------------|
-----7-----------------------------------| x2
-8-9---9-8---3-3-3-----------------------|
-------------1-1-1-----------------------|

-----------------------------------------|
-----------------------------------------|
-----------------------------------------|
-----4-----------------------------------| x2
-5-6---6-5---3-3-3-----------------------|
-------------1-1-1-----------------------|

-----------------------------------------|
-----------------------------------------|
-------------------6----8---9------------|
----7---8---9--7----7----7---------------| x8
--7---7---7------------------------------|
-----------------------------------------|

Repeat these in the order they sound,they are kinda random in the song xD
Enjoy

http://www.last.fm/music/GoreBastard
Tap to rate this tab
 
# A B C D E F G H I J K L M N O P Q R S T U V W X Y Z