Song name
# A B C D E F G H I J K L M N O P Q R S T U V W X Y Z

Gorerotted - Hacked In The Back Dumped In A Sack tab

---HACKED IN THE BACK, DUMPED IN A SACK---
             --By GOREROTTED--
   -From The 2003 Album ONLY TOOLS AND CORPSES-



Tuning: Down 1 Step ( D G C F A D )
------------------------------------
Thanks To Djeez For Helping Me With
Riff 2 And Riff 3.
------------------------------------
Riff 1 x6
||-----------------|----------------||
||-----------------|----------------||
||-----------------|----------------||
||-------7-6-----5-|----------------||
||-5-7-8-----8-7---|4-7-4-7-6-3-6-3-||
||-----------------|----------------||
   " " " " " " " " " " " " " " " "

Riff 2 x4
||--------------------|--------------------||
||--------------------|--------------------||
||--------------------|--------------------||
||--------------------|--------------------||
||----------------4-3-|----------------3-2-||
||-3tr5-4tr6-5tr7-2-1-|-2tr4-3tr5-4tr6-1-0-||
                  . .                  . .

Riff 3 x12
||-------------|-------------||
||-------------|-------------||
||-------------|-------------||
||-------------|----1--------||
||-----2-3/4\3-|-------3/4\3-||
||-0-1---1/2\1-|0-1----1/2\1-||
   . .          . .

Riff 2 x4

*Drum, Bass Fill*

Riff 4 x8
||---------||   ||---------||
||---------||   ||---------||
||---------||x3 ||---------||x1
||---------||   ||---------||
||---------||   ||-4-7-3-6-||
||-3-6-4-7-||   ||---------||
   " " " "         " " " "

Riff 3 x8
Riff 1 x4
Riff 2 x3 and a half

Ending x1
||-----------------||
||-----------------||
||-----------------||
||-3-6-3-6-5-2-5---||
||---------------4-||
||---------------2-||
   " " " " " " " .

END
Tap to rate this tab
# A B C D E F G H I J K L M N O P Q R S T U V W X Y Z