Song name
# A B C D E F G H I J K L M N O P Q R S T U V W X Y Z

Gorerotted - Only Tools And Corpses tab

 Song: Only Tools And Corpses
 Band: Gorerotted
Album: Only Tools And Corpses

Transcribed By: Scott Carlin, corrected by Matt from Gorerotted
Email:          the_super_adventures@yahoo.ie

.  - palm mute           /  - slide up to
\  - slide down to       ~  - vibrato
h  - hammer on           b  - Bend
p  - pull off            Suffixes for bend
t  - tap                 f  - full bend    h - half bend
^ - pinched harmonic    q  - quarter bend t - tap bend
*  - see comment         H  - Hold bend    r release bend
x  - Stuccatto           ~  - vibrato bend
,  - slight palm mute    () - ghost note, sustained note
"  - tremolo note        tr - Trill

Tuning: Down 1 Step ( D G C F A D )

Intro x1
||-----------------||
||-15--15--15--15--||
||-17b-17b-17b-17b-|| GTR 1
||-----------------||
||-----------------||
||-----------------||
|                   |
||-----------------||
||-----------------||
||-----------------|| GTR 2
||-----------------||
||--2---2---2---2--||
||--0---0---0---0--||
    .   .   .   .


Riff 1 x8 ( Both Gtrs )
||--------------------||
||--------------------||
||--------------------||
||--------------------||
||--------------------||
||--3-0-4-1--3-0-4-1--||
    " " " "  " " " "

Riff 2 x4 ( Both Gtrs )
||-----------------||
||-----------------||
||-----------------||
||-----5-----------||
||--2--3--3-----3--||
||--0-----1-0-0-1--||
            . .

Riff 1 x4 ( Both Gtrs )

Riff 3 x2 ( Both Gtrs )
||---------------------------------------------|
||---------------------------------------------|
||---------------------------------------------|
||---------6-6-5/6\5-----------------------6h9-|
||-2-2-2-2-4-4-3/4\3--2-2-2-2------6h9-5h8-----|
||-0-0-0-0------------0-0-0-0--5h8-------------|
   . . . .            . . . .

  ------------------------------------||
  ------------------------------------||
  ------------------------------------||
  ---------6-6-5/6\5------------------||
  -2-2-2-2-4-4-3/4\3-2-2-2-2--5/8-5/8-||
  -0-0-0-0-----------0-0-0-0--3/6-3/6-||
   . . . .           . . . .

Riff 4 x4
||-------------------||
||-------------------||
||-------------------||
||--------7-6--------||
||--------------7-8--||
||--0-6-5-----6------||
    " " " " " " " "

Riff 3 x2
Riff 4 x2
Riff 4 x2 ( With Tempo Change )
Riff 2 x8

Riff 5 x8
||---------------------------------||
||---------------------------------||
||---------------------------------||
||-------------------------2-------||
||---1-0-1---1-0-1---1-0-1---1-0-1-||
||-0-------3-------4---------------||

*On the last 4 times of riff 5, guitar
2 plays it one octave higher.

Riff 1 x4

Outro x1
||---------------------||
||-15--15--15--15--15--||
||-17b-17b-17b-17b-17b-|| GTR 1
||---------------------||
||---------------------||
||---------------------||
|                       |
||---------------------||
||---------------------||
||---------------------|| GTR 2
||---------------------||
||--2---2---2---2---2--||
||--0---0---0---0---0--||
    .   .   .   .   .

END
Tap to rate this tab
# A B C D E F G H I J K L M N O P Q R S T U V W X Y Z