Song name
# A B C D E F G H I J K L M N O P Q R S T U V W X Y Z

Gorgasm - Anal Skewer tab

Band:  Gorgasm
Album: Masticate to Dominate
Song:  Anal Skewer

Copyright (c)  Unique Leader Records (2003)
Version 1.0 - October 3, 2004

Transcribed By: Antoine Poliquin
Email:          legrandtony@hotmail.com

.  - palm mute           /  - slide up to
\  - slide down to       ~  - vibrato
h  - hammer on           b  - Bend  e.g.: 10b(12) = bend 1 tone
p  - pull off            pb - pre-Bend
t  - tap                 dv - dive (tremolo bar)
p.h. pinched harmonic    |--3--|   - triplets
*  - commentary          r - release bend
x  - Stuccatto           ~  - vibrato bend
,  - slight palm mute    () - ghost note, sustained note
"  - tremolo note        <> - Trill

Most of the times, two (-) are equal to one 8th note (if else, 
i'll indicate it) to lighten the reading of the tabs.
The numbers above the measures are the time signatures.

As always, I'm not claiming that this is THE perfect tab. It's 
simply my interpretation of the song, or how I like to play it.

Of course, any suggestions, improvements or comments are welcome. 

By the way, the first guitar is panned in the left speaker and the
second guitar is panned in the right speaker.
----------------------------------------------------------------------
ANAL SKEWER
Tuning C#(C#-F#-B-E-G#-C#)

INTRO (play the first bar 3x, then the second bar once)
T =120
Above : guitar 1
Below : guitar 2
(this applies for everytime there are two staffs)
    4/4                                 3/4
C#||----------------------------------||-------------------------||
G#||----------------------------------||-------------------------||
E ||----------------------------------||-------------------------||
B ||----7-10-----7-10---7-------7-----||----7-10-----7-10--------||
F#||6-9------6-9------9---9-8-9---9-8-||6-9------6-9-------------||
C#||----------------------------------||-------------------------||
  ||. .      . .      . . . . . . . . ||. .      . .             ||
  ||                                  ||                         ||
C#||----------------------------------||-------------------------||
G#||----------------------------------||-------------------------||
E ||----------------------------------||-------------------------||
B ||----7-10-----7-10-7-10-7--7-10-7--||----7-10-----7-10--------||
F#||6-9------6-9------------11------11||6-9------6-9-------------||
C#||----------------------------------||-------------------------||
    . .      . .      . .  .. . .  ..   . .      . .


RIFF 1 (play 1x all the boxes)
T=120 
                                   ________________________________________
  4/4                             |1.3. (5/4)
||--------------------------------|----------------------------------------|
||--------------------------------|----------------------------------------|
||--------------------------------|----------------------------------------|
||--------------------------------|----------------------------------------|
||7777--------2222------------3-6-|7777--------2222------------3-6-0-3-0---|
||----00001111----000011112-5-----|----00001111----000011112-5-----------4-|
                          . . . .                          . . . . . . . .

 ________________________________
|2.4. (4/4)
|--------------------------------||
|--------------------------------||
|------------------2-------2-----||
|----------------4---4-3-4---4-3-||
|7777--------2222----------------||
|----00001111--------------------||
|                . . . . . . . . ||
|                                ||
|--------------------------------||
|--------------------------------||
|--------------------------------||
|--------------------------------||
|7777--------2222--3-------3-----||
|----00001111----5---5-4-5---5-4-||
                 . . . . . . . .


RIFF 2 (play 1x the whole riff, then 2x again the first two bars)
T=140
  4/4                                                     
||--------------------------------|--------------------------------|
||-------p.h.---------------------|-------p.h.---------------------|
||--------3~----------------------|--------3~----------------------|
||--------------------------------|--------------------------------|
||5---4-------------------3-4-3-4-|5---4-----------4-5-4-----------|
||3---2-----------3-2-3-2---------|3---2-----------2-3-2-----------|
  .   .           . . . . . . . .  .   .           . . .

 5/4                                      4/4
|----------------------------------------|--------------------------------||
|---------------p.h.---------------------|-------p.h.---------------------||
|----------------3~----------------------|--------3~----------------------||
|----------------------------------------|--------------------------------||
|--------5---4-------------------3-4-3-4-|5---4-----------4-5-4-----------||
|3-2-3-2-3---2-----------3-2-3-2---------|3---2-----------2-3-2-----------||
 . . . . .   .           . . . . . . . .  .   .           . . .


RYTHM 1 (play 2x under SOLO 1)
T=125
  4/4
||--------------------------------|--------------------------------|
||--------------------------------|--------------------------------|
||--------------------------------|--------------------------------|
||--------------------------------|--------------------------------|
||8---8---9---9---8---8---9---9---|9-0-9-0-6-0-6-0-9-0-9-0-6-0-6-0-|
||--6---6---6---6---6---6---6---6-|--------------------------------|
    .   .   .   .   .   .   .   .    .   .   .   .   .   .   .   .

|--------------------------------|--------------------------------||
|--------------------------------|-----guit.-2-plays-the-low------||
|--------------------------------|--------string-harmony----------||
|--------------------------------|--------------------------------||
|8---8---9---9---8---8---9---9---|9-0-9-0-6-0-6-0-4444444433333333||
|--6---6---6---6---6---6---6---6-|----------------2222222211111111||
   .   .   .   .   .   .   .   .    .   .   .   . ................


SOLO 1 
(Tom Tangalos) 
With a heavy use of the tremolo bar.
  4/4
||-------------------------------|--------------------------------|
||p.h.---------------------------|--------------------------------|
||14~dv--------------------------|p.h.----------------------------|
||-------------------------------|12~-----------------------------|
||-------------------------------|--------------------------------|
||-------------------------------|--------------------------------|

|p.h.---------------------------|p.h.--------------------------13|
|14~dv--------------------------|19~-----------------------------|
|-------------------------------|--------------------------------|
|-------------------------------|--------------------------------|
|-------------------------------|--------------------------------|
|-------------------------------|--------------------------------|

|18p13----------13-20p13----------13-18p13----------13-20p13----------12-|
|-----14------14--------14------14--------14------14--------14------14---|
|-------15--15------------15--15------------15--15------------12--12-----|
|---------15----------------15----------------15----------------14-------|
|------------------------------------------------------------------------|
|------------------------------------------------------------------------|

|18p12----------12-15p12----------12-18p12----------12-15p12----------12-|
|-----14------14--------14------14--------14------14--------14------14---|
|-------12--12------------12--12------------12--12------------12--12-----|
|---------14----------------14----------------14----------------14-------|
|------------------------------------------------------------------------|
|------------------------------------------------------------------------|

|18p13----------13-20p13----------13-18p13----------13-20p13----------13-|
|-----14------14--------14------14--------14------14--------14------14---|
|-------15--15------------15--15------------15--15------------15--15-----|
|---------15----------------15----------------15----------------15-------|
|------------------------------------------------------------------------|
|------------------------------------------------------------------------|

|-----------------------------------||
|-----------------------------------||
|-------------------------8-8-10-11-||
|----------------7-7-8-10-----------||
|--------6-6-8-9--------------------||
|5-5-6-8----------------------------||
 . . . . . .


RIFF 3 (play 2x)
T=125
  4/4
||--------------------------------|--------------------------------|
||--------------------------------|--------------------------------|
||--------------------------------|--------------------------------|
||--------------------------------|--------------------------------|
||--8-7-8---8-7-8---8---8---8---8-|0-8-7-8-0-9-6-8-0-9-6-8-0-9-6-8-|
||6-------6-------6---9---6---9---|--------------------------------|
||.       .       .   .   .   .   | .       .       .       .      |
||                                |                                |
||--------------------------------|--------------------------------|
||--------------------------------|--------------------------------|
||--------------------------------|--------------------------------|
||--------------------------------|--------------------------------|
||--8-7-8---8-7-8---8-7-8---8-7-8-|0-8-7-8-0-9-6-8-8-9-6-8-8-9-6-8-|
||6-------6-------6-------6-------|--------------------------------|
  .       .       .       .        .       .       .       .

|--------------------------------|--------------------------------||
|--------------------------------|--------------------------------||
|--------------------------------|--------------------------------||
|--------------------------------|--------------------------------||
|--8-7-8---8-7-8-6-8---6---------|0-8-7-8-0-8-7-8-6-8---6-------0-||
|6-------6-----------9---8-9-8-6-|--------------------9---8-9-8---||
|.       .       .               |.       .                       ||
|                                |                                ||
|--------------------------------|--------------------------------||
|--------------------------------|--------------------------------||
|--------------------------------|--------------------------------||
|--------------------------------|--------------------------------||
|--8-7-8---8-7-8---8-7-8---8-7-8-|0-8-7-8-0-8-7-8-6-8---6-------0-||
|6-------6-------6-------6-------|--------------------9---8-9-8---||
 .       .       .       .        .       .


SOLO 2
(Tom Leski)
Play RYTHM 1 (2x) under the solo.
  4/4
||--------13--------------13-------|-----------------------------------|
||------11--11----------11--11-----|-----11-14p11---------11-14p11-----|
||----10------10------10------10---|---10--------10-----10--------10---|
||--11----------11--11----------11-|-11------------11-11------------11-|
||13--------------13---------------|9----------------9-----------------|
||---------------------------------|-----------------------------------|

|--------13--------------13-------|------------------------------------|
|------11--11----------11--11-----|-----11-14p11----------10-16p10-----|
|----10------10------10------10---|---10--------10------11--------11---|
|--11----------11--11----------11-|-11------------11--10------------10-|
|13--------------13---------------|9----------------11-----------------|
|---------------------------------|------------------------------------|

|(play-with-harmonizer-min.-3rd)----------------------|
|--------------------------------------------10101010-|
|--------------------888888881111111111111111---------| these are 10's and
|77771010101010101010---------------------------------| 11's, not 1-1-1-1...
|-----------------------------------------------------|
|-----------------------------------------------------|

|--------------------------------------------|
|--------10101010----------------------------|
|11111111--------888811111111----------------| Same here
|----------------------------7~--------------|
|--------------------------------------------|
|--------------------------------------------|
                                                  
|----------------------------------------------------|
|-----------------------------10h11h13p11p10h11~-----|
|----10h11h13p11~-----10h11h13-----------------------|
|----------------------------------------------------|
|----------------------------------------------------|
|----------------------------------------------------|

|141414131313111111----------------------------------------------||
|------------------1414141313131111111010101010101010101010101010||
|----------------------------------------------------------------||
|----------------------------------------------------------------||
|----------------------------------------------------------------||
|----------------------------------------------------------------||


BRIDGE :
T=105
  5/4
||----------------------------------------||
||----------------------------------------||
||----------------------------------------||
||3---------------3-----------------------||
||1-3-2-3-4-3-2-3-1-3-2-3-4-3-2-3---------||
||--1-0-1-2-1-0-1---1-0-1-2-1-0-1---------||
    . . .   . . .   . . .   . . .


RIFF 4 (play 1x all the boxes):
T=105                              ________________________________
  4/4                             |1.
||--------------------------------|--------------------------------|
||--------------------------------|--------------------------------|
||--------------------------------|----------------------------6\--|
||--------------------33332222----|--------55558888--------5555----|
||----------------------------1111|--------------------------------|
||00000000000000001111------------|33336666--------66669999--------|
||....................            |                                |
||                                |                                |
||--------------------------------|--------------------------------|
||--------------------------------|--------------------------------|
||--------------------------------|--------------------------------|
||------------------------22223333|2222222222222222----------------|
||--------------------------------|--------------------------------|
||000000000000000011111111--------|----------------3333333333333333|
  ........................

 ________________________________ ________________________________
|2.4.6.                          |3.5.
|--------------------------------|--------------------------------||
|--------------------------------|--------------------------------||
|----------------------------6\--|----------------------------9999||
|--------55558888--------5555----|--------55558888--------5555----||
|--------------------------------|--------------------------------||
|33336666--------66669999--------|33336666--------66669999--------||
|                                |
|                                |
|--------------------------------|--------------------------------||
|---------------------------p.h.-|--------------------------------||
|----------------------------6~--|--------------------------------||
|2222333322223333--------5555----|2222222222222222----------------||
|----------------11114444--------|--------------------------------||
|--------------------------------|----------------3333333333333333||


Play RIFF 1.
END
Tap to rate this tab
# A B C D E F G H I J K L M N O P Q R S T U V W X Y Z