Song name
# A B C D E F G H I J K L M N O P Q R S T U V W X Y Z

Gorgeous Frankenstein - Hellangel tab

Help us improve GuitareTab! Take a short survey!
Artist: Gorgeous Frankenstein
Song: Hellangel
Album: Gorgeous Frankenstein

Tabbed By: Scott Stewart
Email: windowpane71@hotmail.com


Tuning: Down a 1/2 setp

This should be all of it. Listen to the song for the structure.

							
E|-------------------------------------------|
B|-------------------------------------------|
G|-------------------------------------------|
D|-------------------------------------------|
A|-------------------------------------------|
E|--0-7h8-7-0-6-0-5-4-3h4-0-7h8-7-0-6-0-5-4--|
AH	  .           .         .


E|--------------------|
B|--------------------|
G|--------------------|
D|--22-222-222-222-5--|
A|--22-222-222-222-5--|
E|--00-000-000-000-3--|
PM  .. ... ... ... 


E|------------------------------------------------------|
B|------------------------------------------------------|
G|--7/9-----10/9-----7/9-----10/9-----7/9-----10-9------|
D|--7/9-----10/9-----7/9-----10/9-----7/9-----10/9---8--|
A|--5/7-----8-/7-----5/7-----8-/7-----5/7-----8-/7---8--|
E|------0-0------0-0-----0-0------0-0-----0-0------0-6--|
PM      . .      . .     . .      . .     . .      .


E|----------------------|
B|----------------------|
G|----------------------|
D|--7--10--9--8--7-5-2--|
A|--7--10--9--8--7-5-2--|
E|--5--8---7--6--5-3-0--|


E|------------------|
B|------------------|
G|-------------6-5--|
D|--8888888-2--6-5--|
A|--8888888-2--4-3--|
E|--6666666-0-------|
PM  .......

http://www.gorgeousfrankenstein.com
Related for Hellangel tab