Song name
# A B C D E F G H I J K L M N O P Q R S T U V W X Y Z

Gorgoroth - Crushing The Scepter Regaining A Lost Dominion tab

Help us improve GuitareTab! Take a short survey!
Crushing The Scepter(Regaining A Lost Dominion)
Nobody has tabbed this out yet. So I am going to be the first. I am proud right now. 
is a really good song by a Gorgoroth.

 Riff 1A                 3x
E-----------------------|
G-----------------------|
B-----------------------|
D-2-222-2-222-2-2222222-|
A-2-222-2-222-2-2222222-|
E-0-000-0-000-0-0003333-|

 Riff 1b
E------------------|
B------------------|
G------------------|
D------------------|
A-44444455555544444|
E-22222222222222222|

Repeat riff 1A
The riff    1b
Do that for a bit I'm not sure how long
then play this after riff 1b

 Riff 2A
E--------------0----------------|
B---------------0---------------|
G----------------0--------------|
D-2----7----2-----2-------------|
A-2////9////3------33--3--3///15|
E-0-----------------1--1--1///13|
                           ^^^^^
Infernus does something different
where it has ^^^^^ under it. I'm not sure what it is though.

 Riff 3A              x3
E------------------------|
B------------------------|
G------------------------|
D-99999910101010109999999|
A-77777777777777777777777|
E------------------------|
 Riff 3B
E-------------------|
B-------------------|
G-------------------|
D-99999991010101010-|
A-66666666666666666-|
E-------------------|

Repeat riff 3A then 3B a few times
Then play this after 3 A I think.

 Riff 4A                                                                                 
    2x
E-----------------------------------------------------------------------------------------------|
B----------8888-----------------------9999-----------------------8888----------------7777-------|
G------9999----9999-----------10101010----10101010-----------9999----9999--------8888----8888---|
D-99999------------99910101010--------------------10101099999------------99988888------------777|
A-77777------------77788888888--------------------88888877777------------77766666------------666|
E-----------------------------------------------------------------------------------------------|

Then
 Riff 4B                                      x2
E-----------------------------------------------|
B-----------------------------------------------|
G-----------------------------------------------|
D-------------7777799999------------101010109999|
A-9999101010109999999999999910101010999999999999|
E-777777777777----------777777777777777777777777|

Play Riff 4A then 4B. After for B play this
 Chord 1A
E--|
G--|
B--|
D-2|
A-2|
E-0|

Only play that once. then play this kick ass riff.

E------------------------------------------------------------------------------------|
B------------------------------------------------------------------------------------|
G------------------------------------------------------------------------------------|
D-999910101010999977779999999999997777777777-----------------------------------------|
A-77777777777777777777777710101010999997777777779999101010109999977779999101010109999|
E-------------------------------------------88888888888888888888888888888888888888888|

Repeat that for awhile then play Chord A Which is

E---|
B---|
G---|
D-2-|
A-2-|
E-0-|

 Ok thanks guys I hope that was good. If you have any corrections please tell me
at Ghost_boy_1339@hotmail.com
Related for Crushing The Scepter Regaining A Lost Dominion tab