Song name
# A B C D E F G H I J K L M N O P Q R S T U V W X Y Z

Gorgoroth - Pa Slagmark Langt Mot Nord tab

Artist: Gorgoroth
Title: Pa Slagmark Langt mot Nord
Album: Destroyer

Tabbed by elc (elc@o2.pl;elc@onet.pl)

As with any Gorgoroth song, the sound is very distorted and because of this
hearing every note is sometimes imposible. If U find some riff incorect, feel
free to tell me.
This song is very simple, the only difficulty is probably keeping up the speed
especially during the "after solo" part

Riff 1, tremolo picking,
e|-----|
B|-----|
G|-----|
D|-4-3-|
A|-2-1-|
E|-----|

Riff 2, tremolo picking,
e|---------------------------------|
B|---------------------------------|
G|---------------------------------|
D|-------------------------5---4-2-|
A|-2-------2-------2-------3---2-0-|
E|-0-------3-------0---------------|

Riff 3, "normal" picking, listen carefully to get the timing,
e|-----------------------------------------------------------------
B|-----------------------------------------------------------------
G|------------11-9---------------------11-9-8----------------------
D|----------9------10-9^-------------9--------10p9-9-10-10-12-10-9-
A|---7-9-10-------------------7-9-10-------------------------------
E|-0---------------------------------------------------------------

e|-----------------------------------------------------------------|
B|-----------------------------------------------------------------|
G|-----------------------------------------------------------------|
D|-10p9-----------10-9---------12-10-8^^---------------------------|
A|------10p7-9-10------9-10-12-------------------------------------|
E|-----------------------------------------------------------------|
Tap to rate this tab
 
# A B C D E F G H I J K L M N O P Q R S T U V W X Y Z