Song name
# A B C D E F G H I J K L M N O P Q R S T U V W X Y Z

Gorgoroth - Profetenes Apenbaring tab

Artist: Gorgoroth
Title: Profetens apenbaring
Album: Under the sign of hell

Tabbed by elc (elc@o2.pl;elc@poczta.onet.pl)

This song is probably played in D tuning, but I have tabbed it for the
standard tuned guitar.

Riff 1, "normal" picking,
e|-------------------------------------------------
B|-------------------------------------------------
G|-------------------------------------------------
D|-------------7-777-7-5-7-8-888-8-7-5-5-555-5---5-
A|-5-555-5-7-8---------------------------------8---
E|-------------------------------------------------

e|-------------------------------------------------|
B|-------------------------------------------------|
G|-------------------------------------------------|
D|-7-777-7-5---------------5-555-5-----------------|
A|-----------8-5-555-5-7-8---------8-7-8-888-7-8-7-|
E|-------------------------------------------------|

Riff 2, tremolo picking,
e|-------------------------------------------------
B|-------------------------------------------------
G|-------------------------------------------------
D|-------------------------------------------------
A|-5-5-5-5-5-5-8-8-8-8-8-8-5-5-5-8-8-8-7-7-7-4-4-4-
E|-------------------------------------------------

e|-------------------------------------------------
B|-------------------------------------------------
G|-------------------------------------------------
D|-------------------------------------------5-5-5-
A|-5-5-5-5-5-5-7-7-7-4-4-4-5-5-5-7-7-7-8-8-8-------
E|-------------------------------------------------

e|-------------------------------------------------
B|-------------------------------------------------
G|-------------------------------------------------
D|-------------------------------------------------
A|-5-5-5-5-5-5-8-8-8-8-8-8-5-5-5-8-8-8-7-7-7-4-4-4-
E|-------------------------------------------------

e|-------------------------------------------------|
B|-------------------------------------------------|
G|-------------------------------------------------|
D|-------------------------5-5-5-------------------|
A|-5-5-5-5-5-5-7-7-7-4-4-4-------8-8-8-7-7-7-8-8-8-|
E|-------------------------------------------------|

Riff 3, "normal" picking,
e|-------------------------------------------------
B|-------------------------------------------------
G|-------------------------------------4-444-------
D|-4-444-7-6-4-------7-6-4-4-444-7-6-4-------7-6-4-
A|-------------5-555-------------------------------
E|-------------------------------------------------

e|-------------------------------------------------|
B|-------------------------------------------------|
G|-------------------------------------------------|
D|-4-444-7-6-4-------7-6-4-4-444-7-6-4-3-333-7-6-4-|
A|-------------5-555-------------------------------|
E|-------------------------------------------------|

Riff 4, tremolo picking,
e|-------------------------------------------------
B|-------------------------------------------------
G|-------------------------------------------------
D|-4-4-4-4-4-4-7-7-7-7-7-7-------------------------
A|-------------------------5-5-5-5-5-5-7-7-7-7-7-7-
E|-------------------------------------------------

Riff 5, tremolo picking,
e|-------------------------------------------------
B|-------------------------------------------------
G|-------------------------------------------------
D|-7-7-7-7-7-7-6-6-6-------------------------6-6-6-
A|-------------------7-7-7-4-4-4-4-4-4-7-7-7-------
E|-------------------------------------------------

e|-------------------------------------------------|
B|-------------------------------------------------|
G|-6-6-6-6-6-6-4-4-4-------------------------------|
D|-------------------7-7-7-4-4-4-4-4-4-6-6-6-6-6-6-|
A|-------------------------------------------------|
E|-------------------------------------------------|
Tap to rate this tab
# A B C D E F G H I J K L M N O P Q R S T U V W X Y Z