Song name
# A B C D E F G H I J K L M N O P Q R S T U V W X Y Z

Gorgoroth - Huldrelokk tab

Artist: Gorgoroth
Title: Huldrelokk
Album: Pentagram

Tabbed by elc (elc@o2.pl;elc@poczta.onet.pl)

Riff 1,
e|---------------------------------|
B|---------------------------------|
G|---------------------------------|
D|-7-------10------6-------7---9---|
A|-7-------8-------7-------7---7---|
E|---------------------------------|

Riff 2,
e|---------------------------------|
B|---------------------------------|
G|---------7-----------------------|
D|-8-----------108-7-------10--7---|
A|---------------------------------|
E|---------------------------------|

Riff 3, guitar one continues with riff 2,
e|-3---------------2---------------|
B|-3---------------2---------------|
G|-3---------------2---------------|
D|-5---------------4---------------|
A|-5---------------4---------------|
E|-3---------------2---------------|

Riff 4,
e|---------------------------------|
B|---------------------------------|
G|---------------------------------|
D|---9-109---9-109---9-109---9---9-|
A|-7-------10------7-------10--9---|
E|---------------------------------|
Tap to rate this tab
# A B C D E F G H I J K L M N O P Q R S T U V W X Y Z