Song name
# A B C D E F G H I J K L M N O P Q R S T U V W X Y Z

Gorgoroth - Profetens Apenbaring tab

profetens apenbaring by gorgoroth

tabbed by jon c

tuning= standard


normal pick all the notes but play some rather fast
e|-------------------------------------------------|
B|-------------------------------------------------|
G|-------------------------------------------------|
D|-------------7-777-7-777-8-888-8-7-5-5-555-5-5-5-|
A|-5-555-5-7-8-------------------------------------|
E|-------------------------------------------------|

e|-------------------------------------------------|
B|-------------------------------------------------|
G|-------------------------------------------------|
D|-7-777-7-5---------------5-555-5-----------------|
A|-----------8-5-555-5-7-8---------8-7-8-888-7-8-7-|
E|-------------------------------------------------|

tremolo pick all notes in time with the song.
e|-------------------------------------------------|
B|-------------------------------------------------|
G|-------------------------------------------------|
D|-----------------------------------------5-------|
A|-5----8----5--8--7--4--5--7--4--0--5--8-----7----|
E|-------------------------------------------------|

normal pick all the notes but play some rather fast
e|-------------------------------------------------|
B|-------------------------------------------------|
G|-------------------------------------------------|
D|-------------7-777-7-777-8-888-8-7-5-5-555-5-5-5-|
A|-5-555-5-7-8-------------------------------------|
E|-------------------------------------------------|

e|-------------------------------------------------|
B|-------------------------------------------------|
G|-------------------------------------------------|
D|-7-777-7-5---------------5-555-5-----------------|
A|-----------8-5-555-5-7-8---------8-7-8-888-7-8-7-|
E|-------------------------------------------------|

e|-------------------------------------------------|
B|-------------------------------------------------|
G|-------------------------------------------------|
D|-------------7-777-7-777-8-888-8-7-5-5-555-5-5-5-|
A|-5-555-5-7-8-------------------------------------|
E|-------------------------------------------------|

e|-------------------------------------------------|
B|-------------------------------------------------|
G|-------------------------------------------------|
D|-7-777-7-5---------------5--------0--------------|
A|-----------8-5-555-5-7-8---8-7-8--0--------------|
E|-------------------------------------------------|

e|-------------------------------------------------|
B|-------------------------------------------------|
G|-------------------------------------4-444-------|
D|-4-444-7-6-4-------7-6-4-4-444-7-6-4-------7-6-4-|
A|-------------5-555-------------------------------|
E|-------------------------------------------------|

e|-------------------------------------------------|
B|-------------------------------------------------|
G|-------------------------------------------------|
D|-4-444-7-6-4-------7-6-4-4-444-7-6-4-3-333-7-6-4-|
A|-------------5-555-------------------------------|
E|-------------------------------------------------|

tremolo picking
e|-------------------------------------------------|
B|-------------------------------------------------|
G|-------------------------------------------------|
D|-4-4-4-4-4-4-7-7-7-7-7-7-------------------------|
A|-------------------------5-5-5-5-5-5-7-7-7-7-7-7-|
E|-------------------------------------------------|

normal picking
e|-------------------------------------------------|
B|-------------------------------------------------|
G|-------------------------------------4-444-------|
D|-4-444-7-6-4-------7-6-4-4-444-7-6-4-------7-6-4-|
A|-------------5-555-------------------------------|
E|-------------------------------------------------|

e|-------------------------------------------------|
B|-------------------------------------------------|
G|-------------------------------------------------|
D|-4-444-7-6-4-------7-6-4-4-444-7-6-4-3-333-7-6-4-|
A|-------------5-555-------------------------------|
E|-------------------------------------------------|

e|-------------------------------------------------|
B|-------------------------------------------------|
G|-------------------------------------4-444-------|
D|-4-444-7-6-4-------7-6-4-4-444-7-6-4-------7-6-4-|
A|-------------5-555-------------------------------|
E|-------------------------------------------------|

e|---------------------------------------------------|
B|---------------------------------------------------|
G|--------------------------------------------------x|
D|-4-444-7-6-4-------7-6-4-4-444-7-6-4-3-333-7-6-4-x-|stop abruptly
A|-------------5-555---------------------------------|and
E|---------------------------------------------------|

tremolo picking
e|-------------------------------------------------|
B|-------------------------------------------------|
G|----------------------6---4----------------------|
D|-7---6-------------6---------7--4--6-------------|
A|--------7--4----7--------------------------------|
E|-------------------------------------------------|

normal picking
e|-------------------------------------------------|
B|-------------------------------------------------|
G|-------------------------------------4-444-------|
D|-4-444-7-6-4-------7-6-4-4-444-7-6-4-------7-6-4-|
A|-------------5-555-------------------------------|
E|-------------------------------------------------|

e|-------------------------------------------------|
B|-------------------------------------------------|
G|-------------------------------------------------|
D|-4-444-7-6-4-------7-6-4-4-444-7-6-4-3-333-7-6-4-|
A|-------------5-555-------------------------------|
E|-------------------------------------------------|
Tap to rate this tab
# A B C D E F G H I J K L M N O P Q R S T U V W X Y Z