Song name
# A B C D E F G H I J K L M N O P Q R S T U V W X Y Z

Gorilla Biscuits - Time Flies tab

--------------------------------------------------------------------------------------------------
          Time Flies - Gorilla Biscuits
--------------------------------------------------------------------------------------------------

tab by: Matthew ambrose

Intro:
E|------------------------|
B|------------------------|
G|-----6--4---------------|
D|--7--6--4---7-----------|
A|--7--4--2---7-----------|
E|--5---------5-----------|

Verse:
E|--------------------------|
B|--------------------------|
G|-----7---4----------------|
D|--7--7---4---5------------|
A|--7--4---2---5------------|
E|--5----------3------------|

Chorus:
E|---------------------------------------|
B|---------------------------------------|
G|--6------6-------6---7-----------------|
D|--6---7--6---7---6---7---------X 2-7---|
A|--4---7--4---7---4---5-------------7---|
E|------5------5---------------------5---|
        pm     pm
Verse

Chorus

verse riff once

Bridge:
E|------------------------------|
B|------------------------------|
G|-----------5----4-------------|
D|--7---5----5----4--5----------|
A|--7---5----3----2--5----------|
E|--5---3------------3----------|

Outro:
E|-----------------------------|
B|-----------------------------|
G|-------------4---------------|
D|--7---5------4--5------------|
A|--7---5------2--5-----X 2----|
E|--5---3---------3------------|
Tap to rate this tab
 
# A B C D E F G H I J K L M N O P Q R S T U V W X Y Z