Song name
# A B C D E F G H I J K L M N O P Q R S T U V W X Y Z

Gorilla Biscuits - Hold Your Ground tab

GORILLA BISCUITS

HOLD YOUR GROUND

standard tuning

intro

Gtr I+II
e --------------|
h --------------|
g --------------|
d 13-12-10-7----|
a 13-12-10-7----|
e 11-10-8--5----|

Gtr I
e -----
h -----
g -----  x2
d 7----
a 7----
e 5----

Gtr II
e ----------------|
h ----------------|
g ----8--------10-|  x2
d 7---8---10---10-|
a 7---6---10---8--|
e 5-------8-------|


verse

e ----------------|
h ----------------|
g ----8--------10-| x4
d 7---8---10---10-|
a 7---6---10---8--|
e 5-------8-------|


chorus

e ----------|
h ----------|
g -------3--| x4
d 7----3-3--|
a 7----3-1--|
e 5----1----|


post-chorus

e ---------------------------------------------|
h ---------------------------------------------|
g ---------------------------------------------|
d 7---10-12--7---10-8-5--7---10-12-13---12-10--|
a 7---10-12--7---10-8-5--7---10-12-13---12-10--|
e 5---8--10--5---8--6-3--5---8--10-11---10-8---|


bridge

e ---------------------|
h ---------------------|
g --2----4----3--2-----| x4
d 3-2--5-4--3-3--2-----|
a 3-0--5-2--3-1--0-----|
e 1----3----1----------|
Tap to rate this tab
# A B C D E F G H I J K L M N O P Q R S T U V W X Y Z