Guitaretab - guitar tabs
Song name
# A B C D E F G H I J K L M N O P Q R S T U V W X Y Z

Gorilla Biscuits - Start Today tab

I'm almost 100% sure that tab is accurate.please rate it. So here it is, START TODAY!!!!!

Artist: Gorilla Biscuit
Song: Start Today
Album: Start Today

Palm mute .
Slide /
Ring out ~

Intro
e --------------------------------------------|
B --------------------------------------------|
G --6---6-6-6---6-6--6-6-6---6-6--6-6-6---6~--|
D --6---6-6-6---6-6--6-6-6---6-6--6-6-6---6~--|   2x
A --4---4-4-4---4-4--4-4-4---4-4--4-4-4---4~--|
E --------------------------------------------|
        .....       .....       .....
Verse
e ------------------------------------------------------|
B ------------------------------------------------------|
G --------------------------6---6-6-6---6---6-6-6---6---|
D --4---4-4-4---7---7-7-7---6---6-6-6---6---6-6-6---4---|   4x
A --4---4-4-2---7---7-7-5---4---4-4-4---4---4-4-4---4---|
E --2---2-2-2---5---5-5-5-------------------------------|
        .....       .....       .....       .....
Chorus
e ------------------------------------------------------------------------|
B ------------------------------------------------------------------------|
G --4~-6~-4~-----------------------4~-6~-----------------------4~-4-4-4---|
D --4~-6~-4~---6-6-6~---7-7-7~---4~-6~---7-7-7-7-7-7-7-7-7---2~-2-2-2---|
A --2~-4~-2~---6-4--6~---7-7-7~---2~-4~---7-7-7-7-7-7-7-7-7---2~-2-2-2---|
E -------------4-4--4----5-5-5~-----------5-5-5-5-5-5-5-5-5--------------|
               . .       . .                 . .   . .

e ------------------------------------------------------|
B ------------------------------------------------------|
G --------------------------6---6-6-6---6---6-6-6---6---|
D --4---4-4-4---7---7-7-7---6---6-6-6---6---6-6-6---4---|
A --4---4-4-2---7---7-7-5---4---4-4-4---4---4-4-4---4---|
E --2---2-2-2---5---5-5-5-------------------------------|
        .....       .....       .....       .....
[ Tab from: http://www.guitaretab.com/g/gorilla-biscuits/39212.html ]
e ----------------------------------------|
B ----------------------------------------|
G --------------------------6---6-6-6-6---|
D --4---4-4-4---7---7-7-7---6---6-6-6-6---|
A --4---4-4-2---7---7-7-5---4---4-4-4-4---|
E --2---2-2-2---5---5-5-5-----------------|
        .....       .....       .....
Verse
e ------------------------------------------------------|
B ------------------------------------------------------|
G --------------------------6---6-6-6---6---6-6-6---6---|   4x
D --4---4-4-4---7---7-7-7---6---6-6-6---6---6-6-6---4---|
A --4---4-4-2---7---7-7-5---4---4-4-4---4---4-4-4---4---|
E --2---2-2-2---5---5-5-5-------------------------------|
        .....       .....       .....       .....
Chorus
e -------------------------------------------------------------------------|
B -------------------------------------------------------------------------|
G --4~-6~-4~-----------------------4~-6~-----------------------4~-4-4-4----|
D --4~-6~-4~---6-6-6~---7-7-7~---4~-6~---7-7-7-7-7-7-7-7-7---2~-2-2-2----|
A --2~-4~-2~---6-4--6~---7-7-7~---2~-4~---7-7-7-7-7-7-7-7-7---2~-2-2-2----|
E -------------4-4--4----5-5-5~-----------5-5-5-5-5-5-5-5-5---------------|
               . .       . .                 . .   . .
Bridge 2x
e ------------------------------------------------------------------------|
B ------------------------------------------------------------------------|
G ------------------------------------------------------------------6h7p6-|
D --4-4-4-4---7-7-7-7---2-2---2-2---2-2---4-4-4-4---7-7-7-7---2-2---------|
A --4-4-4-4---7-7-7-7---2-2---2-2---2-2---4-4-4-4---7-7-7-7---2-2---------|
E --2-2-2-2---5-5-5-5---0-0---0-0---0-0---2-2-2-2---5-5-5-5---0-0---------|
    . . . .   . . . .   . .   . .   . .   . . . .   . . . .   . .

e --------------------------------------------------------------------------|
B --------------------------------------------------------------------------|
G ---------------------------------------------------------------764--------|
D --4-4-4-4---7-7-7-7---2-2---2-2---2-2---4-4-4-4---7-7-7-7---2-2---764-----|
A --4-4-4-4---7-7-7-7---2-2---2-2---2-2---4-4-4-4---7-7-7-7---2-2------76/4-|
E --2-2-2-2---5-5-5-5---0-0---0-0---0-0---2-2-2-2---5-5-5-5---0-0-----------|
    . . . .   . . . .   . .   . .   . .   . . . .   . . . .   . .
Verse
e ------------------------------------------------------|
B ------------------------------------------------------|
G --------------------------6---6-6-6---6---6-6-6---6---|
D --4---4-4-4---7---7-7-7---6---6-6-6---6---6-6-6---4---|   2x
A --4---4-4-2---7---7-7-5---4---4-4-4---4---4-4-4---4---|
E --2---2-2-2---5---5-5-5-------------------------------|
        .....       .....       .....       .....
Chorus
e --------------------------------------------------------------------------|
B --------------------------------------------------------------------------|
G --4~-6~-4~-----------------------4~-6~-----------------------4~-4-4-4-----|
D --4~-6~-4~---6-6-6~---7-7-7~---4~-6~---7-7-7-7-7-7-7-7-7---2~-2-2-2-----|
A --2~-4~-2~---6-4--6~---7-7-7~---2~-4~---7-7-7-7-7-7-7-7-7---2~-2-2-2-----|
E -------------4-4--4----5-5-5~-----------5-5-5-5-5-5-5-5-5----------------|
               . .       . .                 . .   . .
Outro
e ----------------------------|
B ----------------------------|
G ----------------------------|
D --4-4-4-4---7-7-7-7---2-2---|
A --4-4-4-4---7-7-7-7---2-2---|
E --2-2-2-2---5-5-5-5---0-0---|
    . . . .   . . . .   . .
Related for Start Today tab